Amor de madre (BAJ) (4)


espera 4 segundos antes de empezar
1....2....3....4....  1....2....3....4....
                      a
|---------------------|---------------------|
|------2-2------------|---------------------|
|-0--0-----------3-3--|------5-5-------5-5--|
|-----------1--1------|-3--3------3--3------|

                      b
|---------------------|---------------------|
|------2-2------------|---------------------|
|-0--0-----------3-3--|------5-5-------5----|
|-----------1--1------|-3--3------3--3---3--|

                      c
|---------------------|---------------------|
|------2-2------------|---------------------|
|-0--0-----------3-3--|------5-5-------5023-|
|-----------1--1------|-3--3------3--3------|

                      d
|------2--------------|---------------------|
|-0--0---0-------2-2--|------5-5------------|
|-----------0--0------|-3--3-----------5023-|
|---------------------|-----------3--3------|

                      e
|------2-2------------|---------------------|
|-0--0-----------2----|------5-5------------|
|-----------0--0---0--|-3--3-----------5023-|
|---------------------|-----------3--3------|

                      f
|------2-2------------|---------------------|
|-0--0-----------2-2--|------5-5------------|
|-----------0--0------|-3--3-----------5----|
|---------------------|-----------3--3---3--|

                      g
|------2-2------------|---------------------|
|-0--0-----------2-2--|------5-5------------|
|-----------0--0------|-3--3-----------5023-|
|---------------------|-----------3--3------|

                      h
|------2-2------------|---------------------|
|-0--0-----------2-2--|------5-5------------|
|-----------0--0------|-3--3-----------5-5--|
|---------------------|-----------3--3------|

Y aqui se repite de esta forma

2x a, b, c, d, e, f, a, c, g, h, a, c, g, 2x h
a, c, g, h, a, c, g, h, a, c

en el minuto 3 con 22 segundos se continua asi

|------2-2------------|---------------------------|
|-0--0-----------2-2--|------5-5------------------|
|-----------0--0------|-3--3-----------5----------|
|---------------------|-----------3--3---3--/--15-|

                      a
|---------------------|---------------------|
|------5-5------------|---------------------|
|-3--3-----------5-5--|------3-3-------5-5--|
|-----------3--3------|-1--1------3--3------|

                      b
|----------------4-4--|---------------------|
|------2----2--2------|---------------------|
|-0--0---0------------|------3-3-------5-5--|
|---------------------|-1--1------3--3------|

                      c
|---------------------|---------------------|
|------5-5------------|---------------------|
|-3--3-----------5-5--|------3-3-------5----|
|-----------3--3------|-1--1------3--3---3--|

a, b, c, b, a, b, c, b, a (y se pierde en las ultimas dos partes)

 A
        A        
ventura

Este fichero es trabajo propio de su transcriptor y representa su interpretación personal de la canción. El material contenido en esta página es para exclusivo uso privado, por lo que se prohibe su reproducción o retransmisión, así como su uso para fines comerciales.