Your Time Has Come


s: Slide
h: hammer-on

Intro:


e|-------------------------------------------
B|-------------------------------------------
G|-9-7-9-7-9-7-------------------------------
D|-------------9-7-9-7-9-7-9-7-----------7-9-
A|-----------------------------10-7-7-10-----
E|-------------------------------------------


e|--------------------------
B|-----5-8-5----------------
G|-7-9-------9-7------------
D|---------------9-7--------
A|-------------------10-7s--
E|--------------------------


Riff Principal:


e|---------------------------------
B|---------------------------------
G|---------------------------------
D|---------------------------------  x12
A|-7-5----------5h7--5-------------
E|-----7-5-3-0---------7-5-3-0-3h5-


Refrão:


e|-------------------0-----------------
B|-8-----------------0----8------------
G|-7----7------------9----7----7-------
D|-5----7----7----9--9----5----7----7--
A|------5----7----7--7---------5----7--
E|-----------5----0-----------------5--


Riff Principal:


e|---------------------------------
B|---------------------------------
G|---------------------------------
D|---------------------------------  x10
A|-7-5----------5h7--5-------------
E|-----7-5-3-0---------7-5-3-0-3h5-


Refrão:


e|-------------------0----------------------0---
B|-8-----------------0----8-----------------0---
G|-7----7------------9----7----7------------9---
D|-5----7----7----9--9----5----7----7----9--9---
A|------5----7----7--7---------5----7----7--7---
E|-----------5----0-----------------5----0------


e|-------------------0-----------------
B|-8-----------------0----8------------
G|-7----7------------9----7----7-------
D|-5----7----7----9--9----5----7----7--
A|------5----7----7--7---------5----7--
E|-----------5----0-----------------5--


Riff Principal:


e|---------------------------------
B|---------------------------------
G|---------------------------------
D|---------------------------------  x2
A|-7-5----------5h7--5-------------
E|-----7-5-3-0---------7-5-3-0-3h5-


Solo...

Riff Principal:


e|---------------------------------
B|---------------------------------
G|---------------------------------
D|---------------------------------  x4
A|-7-5----------5h7--5-------------
E|-----7-5-3-0---------7-5-3-0-3h5-


Interlúdio:


e|----------------------------------------------
B|----------------------------------------------
G|----------------------------------------------
D|-9---------7------------9---------7-----------
A|-7----5----5----7--5-5--7----5----5----7--5-5-
E|-0----3---------5--3-3--0----3---------5--3-3-


e|----0-----3------3--------------0-----3--
B|---5-5---5-5---5-5s3-----------5-5---5-5-
G|-----------------------------------------
D|-9-----------7---------------9-----------
A|-7-----5-----5-------7--5-5--7-----5-----
E|-0-----3-------------5--3-3--0-----3-----


e|--------------------
B|--------------------
G|--------------------
D|-7--7--7-7-7-7------
A|-5--5--5-5-5-5------
E|--------------------


Refrão:


e|-------------------0----------------------0--
B|-8-----------------0----8-----------------0--
G|-7----7------------9----7----7------------9--
D|-5----7----7----9--9----5----7----7----9--9--
A|------5----7----7--7---------5----7----7--7--
E|-----------5----0-----------------5----0-----


e|-----------14-------------------------
B|--8------15--15s----1214---12s----8---
G|--7----7----------12-------12s----7---
D|--5----7--------7--------9--------5---
A|-------5--------7--------7------------
E|----------------5--------0------------


e|-----14---------
B|---15--15s------
G|-7--------------
D|-7---------7----
A|-5---------7----
E|-----------5----


Riff Principal:


e|---------------------------------
B|---------------------------------
G|---------------------------------
D|---------------------------------  x3
A|-7-5----------5h7--5-------------
E|-----7-5-3-0---------7-5-3-0-3h5-


Finalização:


e|------------
B|------------
G|------------
D|--9---------
A|--7---------
E|--0---------


Audioslave
(Guitar chords, ukelele, keyboard, tabs, bass, drums and lyrics)

Este fichero es trabajo propio de su transcriptor y representa su interpretación personal de la canción. El material contenido en esta página es para exclusivo uso privado, por lo que se prohibe su reproducción o retransmisión, así como su uso para fines comerciales.