We Got The Whip


b: bend
h: hammer-on
x: mufled strings
p: pull-off
/: Slide

Riff Principal  x2


e--------------------------------------------------
B--------------------------------------------------
G--------------------------------------------------
D--------------------3p0-5p0-----------------------
A--0-----3-5-x-x-x-x---------3p0-0-----3h5-3h5-----
D--0-x-x-------------------------0-x-x---------3h5-


e--------------------------------------------------
B--------------------------------------------------
G--------------------------------------------------
D---------------------------3p0-5p0----------------
A---------0-----3-5-x-x-x-x---------3p0-0------3h5-
D-3h5-0h3-0-x-x-------------------------0-x-x------


e-----------------------
B-----------------------
G-----------------------
D-----------------------
A-3---------------------
D---5--5-3--------------


Verso  x8


e--2--2-2-2-x-2-2-x-x-0--0-----------------
B--3--3-3-3-x-3-3-x-x-1--1-----------------
G--2--2-2-2-x-2-2-x-x-0--0-----------------
D--0--0-0-0-x-0-0-x-x-2--2--0--3-----------
A--0--0-0-0-x-0-0-x-x-3--3--------5--3--0--
D--0--0-0-0-x-0-0-x-x-x--x-----------------


Long days and nights you fought for truth
got to hand it to you
uprising paid for in blood
only to lose

Ponte:


e------5----------------------
B------5----------------------
G------6----------------------
D--7---7---3---5---7---10-----
A--7---7---3---5---7---10-----
D--7---x---3---5---7---10-----


We're gonna hang you up
you've got balls but

Riff Principal  x2


e--------------------------------------------------
B--------------------------------------------------
G--------------------------------------------------
D--------------------3p0-5p0-----------------------
A--0-----3-5-x-x-x-x---------3p0-0-----3h5-3h5-----
D--0-x-x-------------------------0-x-x---------3h5-


e--------------------------------------------------
B--------------------------------------------------
G--------------------------------------------------
D---------------------------3p0-5p0----------------
A---------0-----3-5-x-x-x-x---------3p0-0------3h5-
D-3h5-0h3-0-x-x-------------------------0-x-x------


e-----------------------
B-----------------------
G-----------------------
D-----------------------
A-3---------------------
D---5--5-3--------------


We got the whip
We got a better bomb
We got the whip
We got the whip
We got a better bomb

Verso  x6


e--2--2-2-2-x-2-2-x-x-0--0-----------------
B--3--3-3-3-x-3-3-x-x-1--1-----------------
G--2--2-2-2-x-2-2-x-x-0--0-----------------
D--0--0-0-0-x-0-0-x-x-2--2--0--3-----------
A--0--0-0-0-x-0-0-x-x-3--3--------5--3--0--
D--0--0-0-0-x-0-0-x-x-x--x-----------------


Heartache and stuff is all you've known
slaves since your youths
and only one life to bargain with
and erase your miss-do

Ponte:


e------5----------------------
B------5----------------------
G------6----------------------
D--7---7---3---5---7---10-----
A--7---7---3---5---7---10-----
D--7---x---3---5---7---10-----


Riff Principal  x2


e--------------------------------------------------
B--------------------------------------------------
G--------------------------------------------------
D--------------------3p0-5p0-----------------------
A--0-----3-5-x-x-x-x---------3p0-0-----3h5-3h5-----
D--0-x-x-------------------------0-x-x---------3h5-


e--------------------------------------------------
B--------------------------------------------------
G--------------------------------------------------
D---------------------------3p0-5p0----------------
A---------0-----3-5-x-x-x-x---------3p0-0------3h5-
D-3h5-0h3-0-x-x-------------------------0-x-x------


e-----------------------
B-----------------------
G-----------------------
D-----------------------
A-3---------------------
D---5--5-3--------------


We got the whip
We got a better bomb
We got the whip
We got the whip
We got a better bomb

Solo:


e---15h16-15-15-15h16-14h15-14-14-14h15-
B---------------------------------------
G---------------------------------------
D---------------------------------------
A---------------------------------------
D---------------------------------------


e-13h14-13-13-13-13h14-13-14-14-14-15h16-
B----------------------------------------
G----------------------------------------
D----------------------------------------
A----------------------------------------
D----------------------------------------


e-15-15-15h16-14h15-14-14-14h15-13h14-13-
B----------------------------------------
G----------------------------------------
D----------------------------------------
A----------------------------------------
D----------------------------------------


e-13-13-13h14-13h14-14h15-14h15------------
B--------------------------------12b-12-10-
G------------------------------------------
D------------------------------------------
A------------------------------------------
D------------------------------------------


e-12b-12-10--------------12b-12-10------------
B-------------12b-12-10-------------12b-12-10-
G---------------------------------------------
D---------------------------------------------
A---------------------------------------------
D---------------------------------------------


e-----------------------------19-18-------
B-----------------------------------19-18-
G-12b-12-10-11b-9-11-12-11-9--------------
D-----------------------------------------
A-----------------------------------------
D-----------------------------------------


e-----------------------------------------
B-----------------------------------19b---
G-19-18-----------------------------------
D---------18-17-19-17-18-17-18-19---------
A-----------------------------------------
D-----------------------------------------


Intelúdio  x2


e--2--2-2-2-x-2-2-x-x-0--0----------------
B--3--3-3-3-x-3-3-x-x-1--1----------------
G--2--2-2-2-x-2-2-x-x-0--0----------------
D--0--0-0-0-x-0-0-x-x-2--2--0--3----------
A--0--0-0-0-x-0-0-x-x-3--3--------5--3--0-
D--0--0-0-0-x-0-0-x-x-x--x----------------


e--2--2-2-2-x-2-2-x-x-------------
B--3--3-3-3-x-3-3-x-x-------------
G--2--2-2-2-x-2-2-x-x-------------
D--0--0-0-0-x-0-0-x-x-3--5--7--10-
A--0--0-0-0-x-0-0-x-x-3--5--7--10-
D--0--0-0-0-x-0-0-x-x-3--5--7--10-


Fearless now in the face of death
there with smile
braving the fight until the end
I know I will never be like you but

Riff 2  x4


e---------------------------------------------
B---------------------------------------------
G---------------------------------------------
D--------------------3p0-5p0------------------
A--0-----3-5-x-x-x-x---------3p0-0-----3h5-3--
D--0-x-x-------------------------0-x-x--------


e---------------
B---------------
G---------------
D---------------
A---------------
D-5--5-3--------


We got the whip
We got a better bomb
We got the whip
We got the whip
We got a better bomb

FinalizaçÏ£o


e-------2/-----------------------
B-------3/-----------------------
G-------2/-----------------------
D--0----0------------------------
A--0----0------------------------
D--0----0------------------------


Audioslave
(Guitar chords, ukelele, keyboard, tabs, bass, drums and lyrics)

Este fichero es trabajo propio de su transcriptor y representa su interpretación personal de la canción. El material contenido en esta página es para exclusivo uso privado, por lo que se prohibe su reproducción o retransmisión, así como su uso para fines comerciales.