Sound Of A Gun


Intro
 ---
[code]

|--15--15--15--15--19--19--19--19--17--17--17--17--14--14--14--14-----|
B|----17--17--17--17--17--17--17--17--17--17--17--17--15--15--15--15--|
G|--------------------------------------------------------------------|
D|--------------------------------------------------------------------|
A|--------------------------------------------------------------------|
D|--------------------------------------------------------------------|


e|--15--15--15--15--17--19--19--19--19--19--19-------------------------------------------------|
B|----17--17--17--17--17--17--17--17--17--17--17-----------------------------------------------|
G|---------------------------------------------------------------------------------------------|
D|---------------------------------------------------------------------------------------------|
A|---------------------------------------------------------------------------------------------|


 ---
Main Riff A
        A        
fter Intro --- [code] e|--------------------------------------------------------------------------------------------| B|--------------------------------------------------------------------------------------------| G|--------------------------------------------------------------------------------------------| D|--------------0h2---0h2----x-x----2-----5-----7----x-x----0h2--0h2----x-x----2-----5-----7--| A|---5h7--5h7---0h2---0h2----x-x----2-----5-----7----x-x----0h2--0h2----x-x----2-----5-----7--| Play through twice [/code] --- Verse C
        C        
hords --- E
        E        
 , D
        D        
C
        C        
D
        D        
- X 3 E,  D
        D        
C
        C        
A
        A        
E
        E        
- X 1 --- Chorus --- [code] e|--------------------------------------------------------| B|--------------------------------------------------------| G|--------------------------------------------------------| D|---0h2--0h2----0h2---0h2----x-x----2----5-----7---------| A|----------------------0h2---0h2----x-x----2----5-----7--| D|----------------------0h2---0h2----x-x----2----5-----7--|/code] Play three times [code] e|------------------------------------------| B|------------------------------------------| G|------------------------------------------| D|---x-x---0h2---0h2---x-x----2----5-----7--| A|---x-x---0h2---0h2---x-x----2----5-----7--| D|---x-x---0h2---0h2---x-x----2----5-----7--|/code] Play Once Order ------------------ Intro Main Riff A
        A        
fter Intro Verse C
        C        
hords Chorus Verse C
        C        
hords Chorus Solo Intro ( With slight varations, listen and you can get it ) Build Up ( E
        E        
D
        D        
E
        E        
D
        D        
... ) Main Riff A
        A        
fter Intro Chorus

Audioslave
(Guitar chords, ukelele, keyboard, tabs, bass, drums and lyrics)

Este fichero es trabajo propio de su transcriptor y representa su interpretación personal de la canción. El material contenido en esta página es para exclusivo uso privado, por lo que se prohibe su reproducción o retransmisión, así como su uso para fines comerciales.