Show Me How To Live


Intro: (4x)


E|-----------------|
B|---3-------------|
G|---2-------------|
D|---0---2~--------|
A|-------2~--------|
D|-------2~--------|


Riff Principal: (2x)


E|---------------------------------------------------------------------------|
B|---------------------------------------------------------------------------|
G|---------------------------------------------------------------------------|
D|--------2-x-0h2-xx-0h2------------2-2-2-5-0-x-------2-x-0h2-xx-0h2---------|
A|------2---x-0h2-xx-0h2-x-0h1-0-xx-0-2-2-5-0-x-----2---x-0h2-xx-0h2---------|
D|--0h2-----x-0h2-xx-0h2-x-------xx---2-2-5-0-x-0h2-----x-0h2-xx-0h2---------|


Verso 1:

(Palm Mute)


E|---------------------------------------------------------------------------|
B|---------------------------------------------------------------------------|
G|---------------------------------------------------------------------------|
D|--------2-x-0h2-xx-0h2------------2-2-2-5-0-x-------2-x-0h2-xx-0h2---------| (4x)
A|------2---x-0h2-xx-0h2-x-0h1-0-xx-0-2-2-5-0-x-----2---x-0h2-xx-0h2---------|
D|--0h2-----x-0h2-xx-0h2-x-------xx---2-2-5-0-x-0h2-----x-0h2-xx-0h2---------|


And with the early dawns
Moving right along
I couldn't buy an eye full of sleep
And in the aching night, under satellites
I was not received
Built with stolen parts
A
        A        
 telephone in my heart Someone get me a priest To put my mind to bed This ringing in my head Is this a cure or is this a disease? E|-------------| B|-------------| G|-------------| D|-x-x-xxx-x-x-| A|-x-x-xxx-x-x-| D|-x-x-xxx-x-x-| RefrÏ£o: (2x) E|----------------------| B|----------------------| G|----------------------| (4x) D|-2-5-0h2-0h2--0h2p0---| A|-2-5-0h2-0h2----------| D|-2-5-0h2-0h2----------| Nail in my hand From my C
        C        
reator You gave me life Now show me how to live Verso 2: (Palm Mute) E|---------------------------------------------------------------------------| B|---------------------------------------------------------------------------| G|---------------------------------------------------------------------------| (2x) D|--------2-x-0h2-xx-0h2------------2-2-2-5-0-x-------2-x-0h2-xx-0h2---------| A|------2---x-0h2-xx-0h2-x-0h1-0-xx-0-2-2-5-0-x-----2---x-0h2-xx-0h2---------| D|--0h2-----x-0h2-xx-0h2-x-------xx---2-2-5-0-x-0h2-----x-0h2-xx-0h2---------| And in the after birth On the quiet E
        E        
arth Let the stains remind you You thought you made a man You better think again Before my role defines you E|-------------| B|-------------| G|-------------| D|-x-x-xxx-x-x-| A|-x-x-xxx-x-x-| D|-x-x-xxx-x-x-| RefrÏ£o: (2x) E|----------------------| B|----------------------| G|----------------------| (4x) D|-2-5-0h2-0h2--0h2p0---| A|-2-5-0h2-0h2----------| D|-2-5-0h2-0h2----------| Nail in my hand From my C
        C        
reator You gave me life Now show me how to live Solo: E|------------------------| B|------------------------| G|-9999999999999999999...-| D|------------------------| A|------------------------| D|------------------------| Ponte: E|-----------------| B|---3-------------| G|---2-------------| (8x) D|---0---2~--------| A|-------2~--------| D|-------2~--------| And in your waiting hands I will land And roll out of my skin And in your finals hours I will stand Ready to begin Ready to begin Ready to begin Ready to begin RefrÏ£o: (2x) E|----------------------| B|----------------------| G|----------------------| (4x) D|-2-5-0h2-0h2--0h2p0---| A|-2-5-0h2-0h2----------| D|-2-5-0h2-0h2----------| Nail in my hand From my C
        C        
reator You gave me life Now show me how to live Após o último refrÏ£o: E|-------------| B|-------------| G|-------------| (4x) D|--0h2-----2--| A|--0h2-----2--| D|--0h2-----2--| Show me how to live (3x) Show me how to liiiiiiive.

Audioslave
(Guitar chords, ukelele, keyboard, tabs, bass, drums and lyrics)

Este fichero es trabajo propio de su transcriptor y representa su interpretación personal de la canción. El material contenido en esta página es para exclusivo uso privado, por lo que se prohibe su reproducción o retransmisión, así como su uso para fines comerciales.