Out of Exile


s:slide
h:hammer-on
x:muffled-strings

Intro:


e|------------------------------
B|-----------------3--6-------3-
G|----2-------5------------4----
D|-3-------7--------------------   x2
A|------------------------------
D|------------------------------


Riff Principal:


e|-----------------------------------------------
B|-----------------------------------------------
G|-----------------------------------------------
D|-10s---------------3--------------0------------
A|-10s--3h5-5-5-x--------3----3h5-3--------------
D|-10s------------3----3---5----------0-0-3h5-0--


e|-----------------------------------------------
B|-----------------------------------------------
G|-----------------------------------------------
D|---------------3--------------0------------10s-
A|--3h5-5-5-x--------3----3h5-3--------------10s-
D|------------3----3---5----------0-0-3h5-0--10s-


e|------------------------------------------2--
B|------------------------------------------3--
G|---------------------------------------------
D|--------------3--------------0---------------
A|-3h5-5-5-x--------3----3h5-3-----------------
D|-----------3----3---5----------0-0-3h5-0-----


e|-------------------------------------------
B|-------------------------------------------
G|-------------------------------------------
D|--------------3--------------0-------------
A|-3h5-5-5-x--------3----3h5-3---------------
D|-----------3----3---5----------0-0-3h5-0---


Verso:


e|---------------------------------5-5-5-5-5-5-5-5
B|-3-3-3-3-3-3-3-3-3-3-3-3-3-3-3-3----------------
G|------------------------------------------------
D|------------------------------------------------
A|------------------------------------------------
D|------------------------------------------------


e|-5-5-5-5-5-5-5-5-3-3-3-3-3-3-3-3-3-3-3-3-3-3-3-3
B|------------------------------------------------
G|------------------------------------------------
D|------------------------------------------------
A|------------------------------------------------
D|------------------------------------------------


e|-1-1-1-1-1-1-1-1-1-1-1-1-1-1-0-0-
B|---------------------------------
G|---------------------------------
D|---------------------------------  x4
A|---------------------------------
D|---------------------------------


Refrão:


e|------------------------------------------------
B|------------------------------------------------
G|------------------------------------------------
D|-10s---------------3--------------0-------------
A|-10s--3h5-5-5-x--------3----3h5-3---------------
D|-10s------------3----3---5----------0-0-3h5-0---


e|-------------------------------------------------
B|-------------------------------------------------
G|-------------------------------------------------
D|--------------3-------x-x-x--x--x-x-x-x----------
A|-3h5-5-5-x--------3---x-x-x--x--x-x-x-x-0-----3-5
D|-----------3----3---5-x-x-x--x--x-x-x-x---3-5----


e|--------------------------------------------------
B|--------------------------------------------------
G|--------------------------------------------------
D|-0h3--------------3--------------0------------10s-
A|-----3h5-5-5-x--------3----3h5-3--------------10s-
D|---------------3----3---5----------0-0-3h5-0--10s-


e|-------------------------------------------------
B|-------------------------------------------------
G|-------------------------------------------------
D|--------------3-------x-x-x--x--x-x-x-x----------
A|-3h5-5-5-x--------3---x-x-x--x--x-x-x-x-0-----3-5
D|-----------3----3---5-x-x-x--x--x-x-x-x---3-5----


e|------------------------
B|------------------------
G|------------------------
D|-0h3--------------------
A|------------------------
D|------------------------


Verso:


e|---------------------------------5-5-5-5-5-5-5-5
B|-3-3-3-3-3-3-3-3-3-3-3-3-3-3-3-3----------------
G|------------------------------------------------
D|------------------------------------------------
A|------------------------------------------------
D|------------------------------------------------


e|-5-5-5-5-5-5-5-5-3-3-3-3-3-3-3-3-3-3-3-3-3-3-3-3
B|------------------------------------------------
G|------------------------------------------------
D|------------------------------------------------
A|------------------------------------------------
D|------------------------------------------------


e|-1-1-1-1-1-1-1-1-1-1-1-1-1-1-0-0-
B|---------------------------------
G|---------------------------------
D|---------------------------------  x4
A|---------------------------------
D|---------------------------------


Refrão:


e|------------------------------------------------
B|------------------------------------------------
G|------------------------------------------------
D|-10s---------------3--------------0-------------
A|-10s--3h5-5-5-x--------3----3h5-3---------------
D|-10s------------3----3---5----------0-0-3h5-0---


e|-------------------------------------------------
B|-------------------------------------------------
G|-------------------------------------------------
D|--------------3-------x-x-x--x--x-x-x-x----------
A|-3h5-5-5-x--------3---x-x-x--x--x-x-x-x-0-----3-5
D|-----------3----3---5-x-x-x--x--x-x-x-x---3-5----


e|--------------------------------------------------
B|--------------------------------------------------
G|--------------------------------------------------
D|-0h3--------------3--------------0------------10s-
A|-----3h5-5-5-x--------3----3h5-3--------------10s-
D|---------------3----3---5----------0-0-3h5-0--10s-


e|-------------------------------------------------
B|-------------------------------------------------
G|-------------------------------------------------
D|--------------3-------x-x-x--x--x-x-x-x----------
A|-3h5-5-5-x--------3---x-x-x--x--x-x-x-x-0-----3-5
D|-----------3----3---5-x-x-x--x--x-x-x-x---3-5----


e|----------------------------
B|----------------------------
G|----------------------------
D|-0h3------------------------
A|----------------------------
D|----------------------------


Solo...

Agora vem as mesmas notas da intro:


e|------------------------------
B|-----------------3--6-------3-
G|----2-------5------------4----
D|-3-------7--------------------   x2
A|------------------------------
D|------------------------------


Refrão:


e|------------------------------------------------
B|------------------------------------------------
G|------------------------------------------------
D|-10s---------------3--------------0-------------
A|-10s--3h5-5-5-x--------3----3h5-3---------------
D|-10s------------3----3---5----------0-0-3h5-0---


e|-------------------------------------------------
B|-------------------------------------------------
G|-------------------------------------------------
D|--------------3-------x-x-x--x--x-x-x-x----------
A|-3h5-5-5-x--------3---x-x-x--x--x-x-x-x-0-----3-5
D|-----------3----3---5-x-x-x--x--x-x-x-x---3-5----


e|--------------------------------------------------
B|--------------------------------------------------
G|--------------------------------------------------
D|-0h3--------------3--------------0------------10s-
A|-----3h5-5-5-x--------3----3h5-3--------------10s-
D|---------------3----3---5----------0-0-3h5-0--10s-


e|-------------------------------------------------
B|-------------------------------------------------
G|-------------------------------------------------
D|--------------3-------x-x-x--x--x-x-x-x----------
A|-3h5-5-5-x--------3---x-x-x--x--x-x-x-x-0-----3-5
D|-----------3----3---5-x-x-x--x--x-x-x-x---3-5----


e|--------------------------------------------------
B|--------------------------------------------------
G|--------------------------------------------------
D|-0h3--------------3--------------0------------10s-
A|-----3h5-5-5-x--------3----3h5-3--------------10s-
D|---------------3----3---5----------0-0-3h5-0--10s-


e|----------------------------------------------
B|----------------------------------------------
G|----------------------------------------------
D|--------------3--------------0------------10s-
A|-3h5-5-5-x--------3----3h5-3--------------10s-
D|-----------3----3---5----------0-0-3h5-0--10s-


e|------------------------------------------2-
B|------------------------------------------3-
G|--------------------------------------------
D|--------------3--------------0--------------
A|-3h5-5-5-x--------3----3h5-3----------------
D|-----------3----3---5----------0-0-3h5-0----


e|-----------------------
B|-----------------------
G|-----------------------
D|--------------3--------
A|-3h5-5-5-x--------3----
D|-----------3----3---5--


Pra finalizar abafe as cordas da guitarra e toque no rítmo da bateria.

Nota: Ouça bem a música e toque junto com ela se for preciso.
Isso vai evitar que se confunda alguma nota com outra que não existe.

Audioslave
(Guitar chords, ukelele, keyboard, tabs, bass, drums and lyrics)

Este fichero es trabajo propio de su transcriptor y representa su interpretación personal de la canción. El material contenido en esta página es para exclusivo uso privado, por lo que se prohibe su reproducción o retransmisión, así como su uso para fines comerciales.