One And The Same


Intro
|-------7-------------------------|
|-----/9--9----97-7---------------|
|----------------9--979-75-7p5----|
|-7-7-------5-7---------------7p5-|

Verse
|--------------x3|------------4-|
|-----/9---------|---------4h7--|
|----------------|-----5-7------|
|-7//----5-7x7-5-|-5-7----------|

|--------------x3|------------4-|
|-----/9---------|---------4h7--|
|----------------|-----5-7------|
|-7//----5-7x7-5-|-5-7----------|

|--------------x3|-------------|
|-----/9---------|-------------|
|----------------|---/99775544-|
|-7//----5-7x7-5-|-5-----------|

Chorus
|------------------------------------------------------------------|
|-----------------4-4-4-2-2-2-2-2--------------------------2-2-0---|
|-2-2-2-5-5-5-5-5-----------------5-5-5-/9-9-9-9-9-5-5-5-2------20-|
|------------------------------------------------------------------|

Intro

Verse2
|--------------x3|--------------|
|-----/9---------|---------4h7--|
|----------------|-----5-7------|
|-7//----5-7x7-5-|-5-7--------5-|

|--------------x3|--------------|
|-----/9---------|--------------|
|----------------|-----5-7577---|
|-7//----5-7x7-5-|-5-7--------5-|

|--------------x3|------------------|
|-----/9---------|------7----7----7-|
|----------------|---7h9--7h9--7h9--|
|-7//----5-7x7-5-|-5----------------|

Chorus (loads of little fills that i couldn't be bothered to tab out)

Solo (chorus x2 + little fills)
|-------7-------------------------|
|-----/9--9----97-7---------------|
|----------------9--979-75-7p5----|
|-7-7-------5-7---------------7p5-|

|-------7-------------------------|
|-----/9--9----97-7---------------|
|----------------9-9797575--------|
|-7-7-------5-7-----------75~-----|

|-------7-------------------------|
|-----/9--9----97-7---------------|
|----------------9--979-75-7p5----|
|-7-7-------5-7---------------7p5-|

|-------7---/11-9----------------------|
|-----/9--9-------97-7-----------------|
|-------------------9--979-7/5-7p5-----|
|-7-7------------------------------7p5-|

Chorus (with fills)

Intro

Outro
|-------------|
|-------------|
|-------------|
|-7~---(12)/-|

Audioslave
(Guitar chords, ukelele, keyboard, tabs, bass, drums and lyrics)

Este fichero es trabajo propio de su transcriptor y representa su interpretación personal de la canción. El material contenido en esta página es para exclusivo uso privado, por lo que se prohibe su reproducción o retransmisión, así como su uso para fines comerciales.