Moth


Intro (palm mute, slight phaser, reverb)

E|--------------------------------------------------------------------|
B|--------------------------------------------------------------------|
G|--------------------------------------------------------------------|
D|---2--2--2--2-------------------5--5--5--5-----3--3--3--3-----------|
A|---0--0--0--0-----5--5--5--5----3--3--3--3-----1--1--1--1-----------|
D|------------------5--5--5--5----------------------------------------|


E|--------------------------------------------------------------------|
B|--------------------------------------------------------------------|
G|--------------------------------------------------------------------|
D|---2--2--2--2-------------------------------------------------------|
A|---0--0--0--0---5--5--5--5------------------------------------------|
D|----------------5--5--5--5----0-------------------------------------|


Main Riff

E|--------------------------------------------------------------------|
B|--------------------------------------------------------------------|
G|---2-------------2-------------3-------------3----------------------|
D|--------------------------------------------------------------------|
A|-----0--3--5--7----0--3--5--7----0--3--5--7----0--3--5--7-----------|
D|-----0--3--5--7----0--3--5--7----0--3--5--7----0--3--5--7-----------|


E|--------------------------------------------------------------------|
B|--------------------------------------------------------------------|
G|-------------------------------2-------------2----------------------|
D|---5-------------5--------------------------------------------------|
A|-----0--3--5--3----0--3--5--3----0--3--5--7----0--3--5--7-----------|
D|-----0--3--5--3----0--3--5--3----0--3--5--7----0--3--5--7-----------|


E|--------------------------------------------------------------------|
B|--------------------------------------------------------------------|
G|---2-------------2-------------3-------------3----------------------|
D|--------------------------------------------------------------------|
A|-----0--3--5--7----0--3--5--7----0--3--5--7----0--3--5--7-----------|
D|-----0--3--5--7----0--3--5--7----0--3--5--7----0--3--5--7-----------|


E|--------------------------------------------------------------------|
B|--------------------------------------------------------------------|
G|---5-------------5-------------7-------------7~~--------------------|
D|--------------------------------------------------------------------|
A|-----0--3--5--7----0--3--5--7----0--3--5--7-------------------------|
D|-----0--3--5--7----0--3--5--7----0--3--5--7-------------------------|


Verse

E|-----------------------------|--------------------------------------|
B|-----------------------------|--------------------------------------|
G|-----------------------------|--------------------------------------|
D|----3------2-------------5---|----3------2-------------7------------|
A|----1------0------5------3---|----1------0------5------5------------|
D|------------------5----------|------------------5------0------------|


Bridge

E|--------------------------------------------------------------------|
B|--------------------------------------------------------------------|
G|--------------------------------------------------------------------|
D|--------------------------------------------------------------------|
A|---------------------0--3^p----0--3^p----0--3h5---------------------|
D|----5---7---0-------------------------------------------------------|


E|--------------------------------------------------------------------|
B|--------------------------------------------------------------------|
G|--------------------------------------------------------------------|
D|--------------------------------------------------------------------|
A|-------5-------------------------0--3^p----0--3^p----0--3h5----/12-|
D|----7-----7---5---7---0----------------------------------------/12-|


Main Riff / C
        C        
horus E|--------------------------------------------------------------------| B|--------------------------------------------------------------------| G|---2-------------2-------------3-------------3----------------------| D|--------------------------------------------------------------------| A|-----0--3--5--7----0--3--5--7----0--3--5--7----0--3--5--7-----------| D|-----0--3--5--7----0--3--5--7----0--3--5--7----0--3--5--7-----------| E|--------------------------------------------------------------------| B|--------------------------------------------------------------------| G|-------------------------------2-------------2----------------------| D|---5-------------5--------------------------------------------------| A|-----0--3--5--3----0--3--5--3----0--3--5--7----0--3--5--7-----------| D|-----0--3--5--3----0--3--5--3----0--3--5--7----0--3--5--7-----------| E|--------------------------------------------------------------------| B|--------------------------------------------------------------------| G|---2-------------2-------------3-------------3----------------------| D|--------------------------------------------------------------------| A|-----0--3--5--7----0--3--5--7----0--3--5--7----0--3--5--7-----------| D|-----0--3--5--7----0--3--5--7----0--3--5--7----0--3--5--7-----------| E|--------------------------------------------------------------------| B|--------------------------------------------------------------------| G|---5-------------5-------------7-------------7~~--------------------| D|--------------------------------------------------------------------| A|-----0--3--5--7----0--3--5--7----0--3--5--7-------------------------| D|-----0--3--5--7----0--3--5--7----0--3--5--7-------------------------| Verse E|-----------------------------|--------------------------------------| B|-----------------------------|--------------------------------------| G|-----------------------------|--------------------------------------| D|----3------2-------------5---|----3------2-------------7------------| A|----1------0------5------3---|----1------0------5------5------------| D|------------------5----------|------------------5------0------------| Bridge E|--------------------------------------------------------------------| B|--------------------------------------------------------------------| G|--------------------------------------------------------------------| D|--------------------------------------------------------------------| A|---------------------0--3^p----0--3^p----0--3h5---------------------| D|----5---7---0-------------------------------------------------------| E|--------------------------------------------------------------------| B|--------------------------------------------------------------------| G|--------------------------------------------------------------------| D|--------------------------------------------------------------------| A|-------5-------------------------0--3^p----0--3^p----0--3h5----/12-| D|----7-----7---5---7---0----------------------------------------/12-| Main Riff / C
        C        
horus E|--------------------------------------------------------------------| B|--------------------------------------------------------------------| G|---2-------------2-------------3-------------3----------------------| D|--------------------------------------------------------------------| A|-----0--3--5--7----0--3--5--7----0--3--5--7----0--3--5--7-----------| D|-----0--3--5--7----0--3--5--7----0--3--5--7----0--3--5--7-----------| E|--------------------------------------------------------------------| B|--------------------------------------------------------------------| G|-------------------------------2-------------2----------------------| D|---5-------------5--------------------------------------------------| A|-----0--3--5--3----0--3--5--3----0--3--5--7----0--3--5--7-----------| D|-----0--3--5--3----0--3--5--3----0--3--5--7----0--3--5--7-----------| E|--------------------------------------------------------------------| B|--------------------------------------------------------------------| G|---2-------------2-------------3-------------3----------------------| D|--------------------------------------------------------------------| A|-----0--3--5--7----0--3--5--7----0--3--5--7----0--3--5--7-----------| D|-----0--3--5--7----0--3--5--7----0--3--5--7----0--3--5--7-----------| E|--------------------------------------------------------------------| B|--------------------------------------------------------------------| G|---5-------------5-------------7-------------7~~--------------------| D|--------------------------------------------------------------------| A|-----0--3--5--7----0--3--5--7----0--3--5--7-------------------------| D|-----0--3--5--7----0--3--5--7----0--3--5--7-------------------------| Fill x 2 E|--------------------------------------------------------------------| B|--------------------------------------------------------------------| G|--------------------------------------------------------------------| D|----/10---7---75/7-----------5---2---------------------------------| A|----/8----5---53/5-----------3---0-------3h5---3-------------------| D|---------------------0-----0----------0---3h5---3----0--------------| InterludE|- Played over the verse riff E|------------------------10------------------------------------------| B|---11~---10~----13-11-------10~~------------------------------------| G|------------------------------------repeat--------------------------| D|--------------------------------------------------------------------| A|--------------------------------------------------------------------| D|--------------------------------------------------------------------| Main Riff / C
        C        
horus E|--------------------------------------------------------------------| B|--------------------------------------------------------------------| G|---2-------------2-------------3-------------3----------------------| D|--------------------------------------------------------------------| A|-----0--3--5--7----0--3--5--7----0--3--5--7----0--3--5--7-----------| D|-----0--3--5--7----0--3--5--7----0--3--5--7----0--3--5--7-----------| E|--------------------------------------------------------------------| B|--------------------------------------------------------------------| G|-------------------------------2-------------2----------------------| D|---5-------------5--------------------------------------------------| A|-----0--3--5--3----0--3--5--3----0--3--5--7----0--3--5--7-----------| D|-----0--3--5--3----0--3--5--3----0--3--5--7----0--3--5--7-----------| E|--------------------------------------------------------------------| B|--------------------------------------------------------------------| G|---2-------------2-------------3-------------3----------------------| D|--------------------------------------------------------------------| A|-----0--3--5--7----0--3--5--7----0--3--5--7----0--3--5--7-----------| D|-----0--3--5--7----0--3--5--7----0--3--5--7----0--3--5--7-----------| E|--------------------------------------------------------------------| B|--------------------------------------------------------------------| G|---5-------------5-------------7-------------7~~--------------------| D|--------------------------------------------------------------------| A|-----0--3--5--7----0--3--5--7----0--3--5--7-------------------------| D|-----0--3--5--7----0--3--5--7----0--3--5--7-------------------------| Outro E|--------------------------------------------------------------------| B|--------------------------------------------------------------------| G|--------------------------------------------------------------------| D|----/10---7---75/7-----------5---2---------------------------------| A|----/8----5---53/5-----------3---0-------3h5---3-------------------| D|---------------------0-----0----------0---3h5---3----0--------------| Essa é pra minha namorada E
        E        
dilaine !!!! Valew

Audioslave
(Guitar chords, ukelele, keyboard, tabs, bass, drums and lyrics)

Este fichero es trabajo propio de su transcriptor y representa su interpretación personal de la canción. El material contenido en esta página es para exclusivo uso privado, por lo que se prohibe su reproducción o retransmisión, así como su uso para fines comerciales.