Getaway Car


Intro / Verse:

E|-------------------------------------------------------------
B|---------------------8--------------------------5-----------
G|--2-----4----5--5-------------2-----4----5--5----------------
D|--3-----5----5--7-------------3-----5----5--7----------------
A|-------------------------------------------------------------
E|-------------------------------------------------------------

  "The first time I saw you...."
  "So get yourself a car...."
 

Chorus:

E|-------------------------------------------------------------
B|--------------3--6---8---5----3-1-0-3---1---3--5---8---------
G|--5-----4--5--4--5---7---4----2-0-0-2---0---4--4---7---------
D|--7-----5--7-------------------------------------------------
A|-------------------------------------------------------------
E|-------------------------------------------------------------

  "Settle down, I won't hesitate....."
 

Solo:

E|-------------------------------------------------------------
B|-------------------------------------------------------------
G|----------5b-----------------------------------5-7b----------
D|------5-7----7~---------5h7--5---------5~----5---------------
A|--5h7---------------5h7--------7--5h7------------------------
E|-------------------------------------------------------------

 

E|-------------------------------------------------------------
B|-------------------8----8-8~---------7b----------------------
G|--5p4b-------------7--9----------5-7-7b---8p7-5--------------
D|-------5---5-----------------5h7----------------7p5----------
A|---------7---------------------------------------------------
E|-------------------------------------------------------------

 

E|-----------------7-------------------------------------------
B|---------------5---------------------------------------------
G|--7b-5-------5-----------------------------------------------
D|-------7p5-7-------------------------------------------------
A|-------------------------------------------------------------
E|-------------------------------------------------------------

 

Outro:

E|-------------------------------------------------------------
B|---------------------8--------------------------------------
G|--2-----4----5--5-------------2-----4----5--5----------------
D|--3-----5----5--7-------------3-----5----5-------------------
A|--------------------------------------------0----------------
E|-------------------------------------------------------------

 

Estrutura:
 
Intro
Verso  x2
Refrao x2
Verso  x3
refrao x2
Verso  x2
Solo
Refrao x2
Verso  x2
Outro

Audioslave
(Guitar chords, ukelele, keyboard, tabs, bass, drums and lyrics)

Este fichero es trabajo propio de su transcriptor y representa su interpretación personal de la canción. El material contenido en esta página es para exclusivo uso privado, por lo que se prohibe su reproducción o retransmisión, así como su uso para fines comerciales.