#1 Zero


/ou:slide
v:vibrato
ha:harmonic
b:bend
h:hammer-on

Intro:


e|----------------------------
B|------7-------10-------12--
G|-9/12------11-------14------
D|----------------------------
A|----------------------------
E|----------------------------


(Agora use whammy)


e|-------9/10-------9/10-------9/10----------------
B|-10/12------10/12------10/12------10/12-7/8-9/10-
G|-------------------------------------------------
D|-------------------------------------------------
A|-------------------------------------------------
E|-------------------------------------------------


e|--------------------------------------9/10-------
B|-7/8----------9/10-7/8----------10/12------10/12-
G|-----9/11-6/7----------9/11-6/7------------------
D|-------------------------------------------------
A|-------------------------------------------------
E|-------------------------------------------------


e|-9/10-------9/10-----------------------------
B|------10/12------10/12-7/8-9/10-7/8----------
G|------------------------------------9/11-6/7-
D|---------------------------------------------
A|---------------------------------------------
E|---------------------------------------------


e|--------------------
B|-9/10-7/8-10/12v----
G|--------------------
D|--------------------
A|--------------------
E|--------------------


Verso:
(Feito com Tremolo)


e|-0------0----0--------------------0--------
B|-0------0-------0-----1------1-------1-----
G|-0------0----------0--2------2----------0--
D|-0------0-------------2------2-------------
A|-2------2-------------0------0-------------
E|-------------------------------------------


Listen now, let me speak
I will be the dog at your feet


e|-0------0----0-------------------------------
B|-0------0-------0-----1--1----3-1-0-1-0------
G|-0------0----------0--2--0--------------0----
D|-0------0-------------2--2----------------2--
A|-2------2-------------0--0-------------------
E|---------------------------------------------


And come along when you call
Be the little bird in your straw and sing you a song


e|-0------12ha----0----------------0---0-------
B|-0------12ha-------0-----1--1----------0-----
G|-0--------------------0--2--0------2-----0---
D|-0-----------------------2--2----------------
A|-2-----------------------0--0--------------3-
E|---------------------------------------------


e|----------
B|-3-1-1----
G|-------0--
D|----------
A|----------
E|----------


I'll be there to take the fall
Though you tread upon me for no reason at all

Refrϣo:


e|---------------------------------------1-
B|-1------1------10--1---------------0----
G|-0------2--2/9------0------------2-------
D|-2------2-----------2---------1----------
A|-3------0-----------3------2-------------
E|-----------------------------------------


But just when you think you've left me blind
I need to, I will keep you in the corner of my eye


e|-------9/10-------9/10-------9/10----------------
B|-10/12------10/12------10/12------10/12-7/8-9/10-
G|-------------------------------------------------
D|-------------------------------------------------
A|-------------------------------------------------
E|-------------------------------------------------


e|-------------------------------
B|-7/8----------9/10-7/8-10/12v--
G|-----9/11-6/7------------------
D|-------------------------------
A|-------------------------------
E|-------------------------------


The corner of my eye

Verso:


e|-0------0----0-----------------------------
B|-0------0-------0-----1------1--3-1-0-1-0--
G|-0------0----------0--2------2-------------
D|-0------0-------------2------2-------------
A|-2------2-------------0------0-------------
E|-------------------------------------------


I will never leave your side
Though you call me your number one zero
Your nevermind


e|-0------12ha----0------------------0-------
B|-0------12ha-------0-----1--1--1-----1-----
G|-0--------------------0--2--0----------0---
D|-0-----------------------2--2----2---------
A|-2-----------------------0--0------------3-
E|-------------------------------------------


e|----------
B|-3-1------
G|-----0----
D|-------2--
A|----------
E|----------


I'll be your king, I'll be your pawn
I will build a pedestal and put you upon it

Refrϣo:


e|---------------------------------------
B|-1------1------10--1------1------10--
G|-0------2--2/9------0------2--2/9------
D|-2------2-----------2------2-----------
A|-3------0-----------3------0-----------
E|---------------------------------------


But just when you think you've left me blind
I'll be creeping right up behind
Cause baby if I...


e|-------------0-----------------------1-
B|----------1-----1-----------------0----
G|-------0-----------0-----------2-------
D|----2-----------------2-----1----------
A|-3-----------------------2-------------
E|---------------------------------------


...need to
I will keep you in the corner of my... 

Riff B
        B        
lack Sabbath: (Toque a seqüencia duas vezes) e|------------------------------------------------- B|------------------------------------------------- G|------------------------------------------------- D|-------9----------9--------9----------9--------9- A|-------7----------7--------7----------7--------7- E|-5-3-0-0--0-3/5-0-0--5-3-0-0--0-3/5-0-0--5-3-0-0- e|------------------------------------------- B|------------------------------------------- G|------------------------------------------- D|---------9--------------------------5-7---- A|---------7----------------------5-7-----5-- E|-0-3/5-0-0--3-5-5-3-5-5-3-5-6-7------------ ...eye Agora o riff têm algumas alteraçϵes. Toque duas vezes a seqüencia: e|----------------------------------------- B|----------------------------------------- G|----------------------------------------- D|-------9----------9--------9----------9-- A|-------7----------7--------7----------7-- E|-5-3-0-0--0-3/5-0-0--5-3-0-0--0-3/5-0-0-- e|---------------------------------- B|---------------------------------- G|---------------------------------- D|---------------------------------- A|---------7----------7----------7-- E|-0-3/5-5-5--0-3/5-5-5--0-3/5-5-5-- e|------------------ B|------------------ G|------------------ D|-----------5-7---- A|-------5-7-----5-- E|-5-6-7------------ Down on the street, over your night Out of your sleep, out of your sight If I need to, If I need to Out of your mouth, in every word Down in your ego one thing is sure I will keep you, I will keep you Solo: e|-------------10-12-10----12b--12-10----17b--15-13- B|-12b-12b-12b----------12------------12------------ G|-11b-11b-11b-------------------------------------- D|-------------------------------------------------- A|-------------------------------------------------- E|-------------------------------------------------- e|-10-12b--12-10----10---------------------------- B|---------------12----12-11-10----10-------10---- G|------------------------------12----12-12----12- D|------------------------------------------------ A|------------------------------------------------ E|------------------------------------------------ e|-15b-18b--15b-18b--14b-17b--14b-12b-- B|------------------------------------- G|------------------------------------- D|------------------------------------- A|------------------------------------- E|------------------------------------- Agora toque rápido usando D
        D        
elay: e|--------------------------------------12-14------- B|-----------------------10/11-12-14-15-------10-12- G|---------------9-11-12---------------------------- D|-------9-11-12------------------------------------ A|-10h12-------------------------------------------- E|-------------------------------------------------- e|-------12-14-------------12-14------------------- B|-13-15-------10-12-13-15-------10-12-13-15------- G|--------------------------------------------9-10- D|------------------------------------------------- A|------------------------------------------------- E|------------------------------------------------- e|----------------------------------12-13-15-17---- B|----9-10-11---------9-10-11-14-15-------------14- G|-11---------9-10-11------------------------------ D|------------------------------------------------- A|------------------------------------------------- E|------------------------------------------------- e|----12-13-15-17-------12-13-15-17-------12-13-15- B|-15-------------14-15-------------14-15---------- G|------------------------------------------------- D|------------------------------------------------- A|------------------------------------------------- E|------------------------------------------------- e|-13-------------------12-14-15-17-19----12-14-15- B|-------10-12-13-15-15----------------15---------- G|----12------------------------------------------- D|------------------------------------------------- A|------------------------------------------------- E|------------------------------------------------- e|-17-19----12-14-15-17-19----12-14-15-17-19------- B|-------15----------------15----------------15-17- G|------------------------------------------------- D|------------------------------------------------- A|------------------------------------------------- E|------------------------------------------------- e|-15-17-19-------17-15-17-20-------17-15-17-20---- B|----------15-17-------------15-17-------------14- G|------------------------------------------------- D|------------------------------------------------- A|------------------------------------------------- E|------------------------------------------------- e|-------15-17-19-------20-18-21-22b-- B|-15-17----------17-19--------------- G|------------------------------------ D|------------------------------------ A|------------------------------------ E|------------------------------------ Refrϣo: e|--------------------------------------- B|-1------1------10--1------1------10-- G|-0------2--2/9------0------2--2/9------ D|-2------2-----------2------2----------- A|-3------0-----------3------0----------- E|--------------------------------------- But just when you think you've left me blind I'll be creeping right up behind Cause baby if I... e|-------------0-----------------------1- B|----------1-----1-----------------0---- G|-------0-----------0-----------2------- D|----2-----------------2-----1---------- A|-3-----------------------2------------- E|--------------------------------------- ...need to I will keep you in the corner of my eye Riff da intro: e|-------9/10-------9/10-------9/10---------------- B|-10/12------10/12------10/12------10/12-7/8-9/10- G|------------------------------------------------- D|------------------------------------------------- A|------------------------------------------------- E|------------------------------------------------- e|--------------------------------------9/10------- B|-7/8----------9/10-7/8----------10/12------10/12- G|-----9/11-6/7----------9/11-6/7------------------ D|------------------------------------------------- A|------------------------------------------------- E|------------------------------------------------- e|-9/10-------9/10----------------------------- B|------10/12------10/12-7/8-9/10-7/8---------- G|------------------------------------9/11-6/7- D|--------------------------------------------- A|--------------------------------------------- E|--------------------------------------------- e|-------------------- B|-9/10-7/8-10/12v---- G|-------------------- D|-------------------- A|-------------------- E|-------------------- Corner of my eye I will be the bird in your straw But you won't get far I will keep you in the corner of my... e|------------------------------------------------- B|------------------------------5/7-5/8-5/10-5/12v- G|------------------------------------------------- D|-9/1211v------7/12-7/9------------------------- A|------------------------------------------------- E|------------------------------------------------- ...eye

Audioslave
(Guitar chords, ukelele, keyboard, tabs, bass, drums and lyrics)

Este fichero es trabajo propio de su transcriptor y representa su interpretación personal de la canción. El material contenido en esta página es para exclusivo uso privado, por lo que se prohibe su reproducción o retransmisión, así como su uso para fines comerciales.