Escucha tu corazón (BAJ)


Escucha tu corazón
Attaque 77

INTRO
G---
D---
A---
E-3-

x2
G--------------------
D---------------2/5--
A--5-5--5-3-3-3------
E--------------------

G--------------------
D------2-3-5-5-5-5-5-
A----3---------------
E-3------------------

VERSOS x2
G----------------------------------------------
D---------------2/5----------------2/5---------
A-5-5--5-3-3--3------5-5--5-3-3--3-------------
E--------------------------------------3-3-3-3-

COROS x2
G-------------------------------
D-----------------------5---5---
A---------------3-3-3-3---3---3-
E-5-5-5-5-5-3-0-----------------

G-------------------------------------------
D-------------------------------------------
A---------------3-3-3-3---------3-3---------
E-5-5-5-5-5-3-0---------3-3-3-3-----3-3-3-3-

PUENTE
        E        
  G------------------------------------------- D-----------------------------2-3-5-5-5-5-5- A--------3-3--3--------3-3--3--------------- E-1-1--1--------1-1--1---------------------- FIN G----------------- D----------------- A----------------- E-5-5-5-5-5-3-0-5- Attaque 77

Este fichero es trabajo propio de su transcriptor y representa su interpretación personal de la canción. El material contenido en esta página es para exclusivo uso privado, por lo que se prohibe su reproducción o retransmisión, así como su uso para fines comerciales.