Dar Pelea (TAB)


Intro:
|---------------------|
|---------------------|
|-6-6-6-6-4/6-6-7777--|
|-7-7-7-7-5/7-7-7777--| X2
|-7-7-7-7-5/7-7-5555--|
|-5-5-5-5-3/5-5-------|

VERSO 1:
  A
        A        
Bm
       Bm       
  |----------------------------------------| |----------------------------------------| |-6-6-6-6-4/6-6-6-6----------------------| |-7-7-7-7-5/7-7-7-7--9-9-9-9-7/9-9-9-9---| |-7-7-7-7-5/7-7-7-7--9-9-9-9-7/9-9-9-9---| |-5-5-5-5-3/5-5-5-5--7-7-7-7-5/7-7-7-7---| A
        A        
  Bm
       Bm       
  La verdad esta guerra no es para mi  D
        D        
 A
        A        
 C
        C        
 D
        D        
|-------------------------------------| |-------------------------------------| |-7-7-7-7-6/7-7-7-----------555-777---| |-7-7-7-7-6/7-7-7--7-7-7-7--555-777---| |-5-5-5-5-4/5-5-5--7-7-7-7--333-555---| |------------------5-5-5-5------------| D
        D        
   A
        A        
 C
        C        
 D
        D        
yo no se disparar ni matar o morir  A
        A        
 F
        F        
|----------------------------------------| |----------------------------------------| |----------------------------------------| |-7-7-7-7-5/7-7-7-7--3-3-3-3-2/3-3-3-3---| |-7-7-7-7-5/7-7-7-7--3-3-3-3-2/3-3-3-3---| |-5-5-5-5-3/5-5-5-5--1-1-1-1-0/1-1-1-1---| A
        A        
   F
        F        
la ciudad va a rendirse a la tempestad  G
        G        
 D
        D        
 F
        F        
 G
        G        
|----------------------------------------| |----------------------------------------| |------------7-7-7-7---------------------| |-5-5-5-5-5--7-7-7-7--3-3-3-3--5555--| |-5-5-5-5-5--5-5-5-5--3-3-3-3--5555--| |-3-3-3-3-3-----------1-1-1-1--3333--| G
        G        
   D
        D        
 F
        F        
 G
        G        
la miseria y la soledad no se van a aguantar VERSO 2:  A
        A        
Bm
       Bm       
  C#
       C#       
 D
        D        
  |-------------------------------------------| |-------------------------------------------| |-6-6-6-6-4/6-6-6-6---------------------6-7-| |-7-7-7-7-5/7-7-7-7--9-9-9-9-7/9-9-9-9--6-7-| |-7-7-7-7-5/7-7-7-7--9-9-9-9-7/9-9-9-9--4-5-| |-5-5-5-5-3/5-5-5-5--7-7-7-7-5/7-7-7-7------| A
        A        
  Bm
       Bm       
  C#
       C#       
 D
        D        
  Vi correr tanta sangre a mi alrededor D
        D        
   A
        A        
 C
        C        
 D
        D        
|-------------------------------------| |-------------------------------------| |-7-7-7-7-7-7-7-7--6-6-6-6--555-777---| |-7-7-7-7-7-7-7-7--7-7-7-7--555-777---| |-5-5-5-5-5-5-5-5--7-7-7-7--333-555---| |------------------5-5-5-5------------| D
        D        
   A
        A        
 C
        C        
 D
        D        
tanto amigo perdí, también perdí un amor  A
        A        
 F
        F        
|----------------------------------------| |----------------------------------------| |-6-6-6-6-4/6-6-6-6--2-2-2-2-1/2-2-2-2---| |-7-7-7-7-5/7-7-7-7--3-3-3-3-2/3-3-3-3---| |-7-7-7-7-5/7-7-7-7--3-3-3-3-2/3-3-3-3---| |-5-5-5-5-3/5-5-5-5--1-1-1-1-0/1-1-1-1---| A
        A        
   F
        F        
la ciudad va a rendirse a la tempestad  G
        G        
 D
        D        
 F
        F        
 G
        G        
|------------------------------------| |------------------------------------| |-4-4-4-4-4--7-7-7-7--2-2-2-2--------| |-5-5-5-5-5--7-7-7-7--3-3-3-3--5555--| |-5-5-5-5-5--5-5-5-5--3-3-3-3--5555--| |-3-3-3-3-3-----------1-1-1-1--3333--| G
        G        
   D
        D        
 F
        F        
 G
        G        
si lo se quieren vernos mal yo quiero ser algo más  E
        E        
 E
        E        
 E
        E        
 E
        E        
que esta mierda y voy a dar pelea ESTRIBILLO: A5  B
        B        
5 En esta guerra ya se cual es el juego  D
        D        
5  E
        E        
5 mi bandera es la del desertor A5  B
        B        
5 no tengo miedo y estoy lleno de fuego  D
        D        
5  E
        E        
5 mi pelea es la de la salvación  A
        A        
5  F#
       F#       
5 para resistir hay que construir  D
        D        
5  E
        E        
5 sin enemigos para negociar  F
        F        
5  G
        G        
5  A
        A        
es ley de quien quiere libertad INTRO VERSO 2: La verdad esta guerra no es para mi yo no se disparar ni matar o morir la cuidad va a rendirse a la tempestad si lo se quieren vernos mal yo quiero ser algo más que esta mierda y voy a dar pelea ESTRIBILLO A5  B
        B        
5 En esta guerra ya se cual es el juego  D
        D        
5  E
        E        
5 mi bandera es la del desertor A5  B
        B        
5 no tengo miedo y estoy lleno de fuego  D
        D        
5  E
        E        
5 mi pelea es la de la salvación  A
        A        
5  F#
       F#       
5 para resistir hay que construir  D
        D        
5  E
        E        
5 sin enemigos para negociar  F
        F        
5  G
        G        
5  E
        E        
5<-- aca cambia con respecto es ley de quien quiere libertad al otro estribillo F#5  E
        E        
5  D
        D        
5 Porque no quiero unirme al rebaño F#5  E
        E        
5  D
        D        
5 yo tengo otra oportunidad Ya sé para que luchar SOLO: BASE
        E        
  |-------------------| |-------------------| |-------------------| |-------------------| |-6-6-6-6-4/6-6-6-6-| |-7-7-7-7-6/7-7-7-7-| |-7-7-7-7-5/7-7-7-7-|X2 |-7-7-7-7-6/7-7-7-7-| |-7-7-7-7-5/7-7-7-7-| |-5-5-5-5-4/5-5-5-5-| |-5-5-5-5-3/5-5-5-5-| |-------------------| |-------------| |-------------| |-------------| |-2-2-2-2-2-2-| hasta que termina el solo |-2-2-2-2-2-2-| |-0-0-0-0-0-0-| A5  B
        B        
5 En esta guerra ya se cual es el juego  D
        D        
5  E
        E        
5 mi bandera es la del desertor A5  B
        B        
5 no tengo miedo y estoy lleno de fuego  D
        D        
5  E
        E        
5 mi pelea es la de la salvación  A
        A        
5  F#
       F#       
5 para resistir hay que construir  D
        D        
5  E
        E        
5 sin enemigos para negociar  F
        F        
5  G
        G        
5  E
        E        
5 es ley de quien quiere libertad voy a dar pelea Esto lo repite como 3 veces y termina en:  A
        A        
Attaque 77

Este fichero es trabajo propio de su transcriptor y representa su interpretación personal de la canción. El material contenido en esta página es para exclusivo uso privado, por lo que se prohibe su reproducción o retransmisión, así como su uso para fines comerciales.