Los ejes de mi carreta (TAB) (4)


Capo en 2

E||-------0-|--5-4-5-4-3-2-3-2-|--1-------------|--0---0-----------|
B||-----1---|------------------|--------------0-|----4---3-1-0---0-|
G||---2-----|------------------|-----2------1---|--------------1---|
D||---------|----------0-------|--0-------2-----|------------------|
A||-0-------|--0---------------|----------------|----------0-------|
E||---------|------------------|--------0-------|--0---------------|



--------------0-|--5-4-5-4-3-2-3-2-|--1-------------|--0-1-0---0-1-2-4-|
------------1---|----0-----0---0---|--------------1-|--------4---------|
--2-------2-----|--5---5-4---3---3-|--2---------2---|------------------|
-----2----------|------------------|-----0----2-----|------------------|
--3-----0-------|------------------|--------0-------|--0---------------|
----------------|------------------|----------------|------------------|


--5-----------||---------------|--------------|--------------|
--------1-----||---------1-----|--------3-----|--------3-----|
--------2-----||*--------2-----|--------1-----|--------1-----|
------2-------||*------2----2--|------2----2--|------2----2--|
--0-----------||---0-----------|--------------|--------------|
-----------0--||---------------|--0-----------|--0-----------|


-----------------||-----------------|----------------|---------------|
----------1------||--------1------0-|-------1------0-|----------3----|
--------2-----2-*||*-----2------0---|-----2------1---|--------1------|
------2-----2---*||*----------------|----------------|------2--------|
--0--------------||---0-------------|----------------|---------------|
-----------------||----------3------|--1------0------|--0---------0--|


-----------------||--------0-5----|--5-4-5-7-5----|--5-4-5-4-3----|
----------1------||------1--------|----0----------|---------------|
--------2-----2-*||----2-----5----|--5---5-7-5----|--5-4-5-4-0----|
------2-----2---*||---------------|---------------|---------------|
--0--------------||--0------------|---------------|---------------|
-----------------||---------------|--5------------|---------------|


--3-2-3-1-0-----|-----------------|----------------|--------------|
--0---0-------0-|-----------------|----------------|--------1-----|
----3---2-1-----|-----------------|--------1-2-----|--------2-----|
----------------|---------2-3-2-1-|--2-3-4-------2-|------2-------|
----------------|-----0-3---------|----------3-----|--0-----------|
----------------|--0--------------|----------------|-----------0--|


                   Porque          los ejes
--------------||------------|----------------------|--------------|
--------1-----||------------|----------------3-----|--------3-----|
--------2-----||*-----------|----------------1-----|--------1-----|
------2-------||*-----------|------2------------2--|------2----2--|
--0-----------||---0--------|----------------------|--------------|
-----------0--||------------|--0-------------------|--0-----------|


                    si a mi megusta que
---------------||-----------------------------------|----------------|
--------1------||--------------------------0------0-|-------1------0-|
--------2-----*||*-----------------------0------0---|-----2------1---|
------2----2--*||*----------------------------------|----------------|
--0------------||-----------------------------------|----------------|
---------------||---3------------------------2------|--1------0------|


--1----0----|--------------------------||-------------------------0-|
--1----3----|-------------------1------||-----------------------1---|
--2----0----|-------------------2-----*||---------------------2-----|
--3----3----|-----------------2-------*||-----------------2---------|
--3----2----|--0-----------------------||--0----------------0-------|
--1----0----|----------------------0---||---------------------------|


--5-4-5-4-4-2-4-2-|--1-------------|--0---0-----------|--------------0-|
------------------|--------------0-|----4---3-1-0---0-|------------1---|
------------------|-----2------1---|--------------1---|--2-------2-----|
----------0-------|--0-------2-----|------------------|-----2----------|
--0---------------|----------------|----------0-------|--3-----0-------|
------------------|--------0-------|--0---------------|----------------|


--5-4-5-4-3-2-3-1-|--0-------------|--0-1-0---0-1-2-4-|
----0-----0---0---|--------------1-|--------4---------|
--5---5-4---3---2-|--1---------2---|------------------|
------------------|----------2-----|------------------|
------------------|--------0-------|--0---------------|
------------------|-----0----------|------------------|

 no necesito si-        len - ci - o                  yo no
------------------|-----------------|--0--------|--------------|
------------1-----|-----------3-----|--3--------|--------3-----|
----------2---2---|-----------1-----|--2--------|--------1-----|
--------2-------0-|--------------2--|--3--------|------2-------|
--0---------------|---------2-------|--2--------|-----------2--|
------------------|--0--------------|-----------|--0-----------|


                     te ni à pero hace                 tiem - po
----------------||------------------|-----------------------|
----------1-----||---------0------0-|-----------------------|
--------2-----2-||*------0------0---|--------------2------1-|
------2-----2---||*-----------------|------------3------2---|
--0-------------||------------------|-----------------------|
----------------||---3-------2------|--1-------------0------|


  A
        A        
hura yano pienso mas los ejes.. --------------------|---------------||-------------|-------------| --------------------|--------1------||--1----------|-------------| ------------2----1--|--------2-----*||--2----------|--------2----| ----------3------2--|------2-------*||--2----------|--------1----| --------------------|--0------------||-------------|------3------| --1-----------0-----|-----------0---||--1----------|--1----------| engrasar ... --0--------|---------------0----| --3--------|---------------1----| --1--------|---------------2----| --2--------|---------------2----| --2--------|---------------0----| --0--------|--------------------| referencias ||-----|| ||-----|| ||*-X-*|| ||*-2-*|| ||-----|| ||-----||

 A
        A        
tahualpa Yupanqui

Este fichero es trabajo propio de su transcriptor y representa su interpretación personal de la canción. El material contenido en esta página es para exclusivo uso privado, por lo que se prohibe su reproducción o retransmisión, así como su uso para fines comerciales.



Buscar canción en YouTube Buscar cover en YouTube


Más canciones