Le tengo rabia al silencio (TAB) (2)


e|---0-----0---------------------|-----------------------------|-|
B|------------------3------3-----|-----------------0-----0-----|-|
G|-----0-----0--------1------1---|---5-----5-------------------|X|
D|-------------------------------|-----4-----4-------2-----2---|2|
A|-3-----3-------2------2--------|-0-----0---------------------|-|
E|-------------0---------------0-|-------------0-0-----3-----0-|-|

-------------|----12-15--------8-12----10----8------7-------5---
-------------|-----------0---8------12----10--------------------
---2-----2---|------------------------------------8---8---5-----
-----1-----1-|------------------------------------------------4-
-------------|------------------------------------------0-------
-2-----2-----|-0-----------0--------------------7---------------

-----2-------2---|-|-----0-------0-----0---------------------------
-----------------|-|---------0-----0-------0---4-----4---4s7-7-----
---2-------2-----|X|---0---0---------0---0-------2-------2s5---5---
---------1-----1-|2|-------------------------4-----4---4---------7-
-2-----2---------|-|-----------------------------------------------
-----------------|-|-0---------0-----------------------------------

-------|-----0-------0-----0---------------------2-----2-----|-|
-7-----|---------0-----0-------0---4-----4---------1-----1---|-|
-----5-|---0---0---------0---0-------2-----4-2-2-----2-----2-|X|
---7---|-------------------------4-----4---------------------|2|
-------|-----------------------------------------------------|-|
-------|-0---------0-----------------------------------------|-|

---0-------------0-----0-----------------------------------------------
-----0-----0-------------------3-----3---------------------0-----0-----
-------0-----0-----0-----0-------1-----1-----5-----5-------------------
-----------------------------------------------4-----4-------2-----2---
---------------3-----3-------2-----2-------0-----0---------------------
-0-------0-----------------0-------------0-------------0-0-----3-----0-

-------------------------------------------------------2s3-0-2---0-|
-----------------0-----0-----------------------------0---------4-0-|
---5-----5----------------------2-----2------------0-------------0-|
-----4-----4-------2-----2--------1-----1------2s4-----------------|
-0-----0-------------------------------------2---------------------|
-------------0-0-----3-----0--2-----2------0---------------------0-|

 A
        A        
tahualpa Yupanqui

Este fichero es trabajo propio de su transcriptor y representa su interpretación personal de la canción. El material contenido en esta página es para exclusivo uso privado, por lo que se prohibe su reproducción o retransmisión, así como su uso para fines comerciales.



Buscar canción en YouTube Buscar cover en YouTube


Más canciones