Adiós Tucuman (TAB)


e|----------------------------------------------------------
B|-------------5-8-7-5h7h5--------------0-3-1-1-0-----------
G|-----------5-----------5------------0---------0-------0---
D|-4-5-6-4-7-------------7----------2-----------------2-----
A|-------------------------9-7--1-2-----------------2-----3-
E|----------------------------------------------0-3---------

---------7---------0--3-5-7-8-7--------------0-3-2-0-2-0------
-------7---10-7----------------------------1-----------1------
-----8--------7--7-----------------------2-------------2------
---9----------7--7------4-5-7-5--4s5s6-4----------------------
-----------------9---------------------------------------3--0-
-7-----------------0------------------------------------------

---------------------------------------7-------------0--------------
---------0-3-1-0-1-0-----------------7---10-7------7-0--4---------0-
-------0-----------0-------0-------8-----------7-9---0--2-------2---
-----2-------------------2-------9----------7-----------4-----2-----
-----------------------2-----3--------------------------2---3-------
-2-3---------------0-3---------7---------------------0----0---------

-0--0-----------0---------------2--2-2-0-----------------------
------4-5-7-8---0------1--------1----1---1-0---------------0-1-
-0--------------0---0-----------2----2-------------0---0-2-----
------4-5-7-9-----2-------------0---------------0----4---------
--------------3-----------2-3-4---------------2----------------
-0-----------------------------------------3-------------------

----------0------------------------------------------------
-3----3-3------3--1--0-----0-0--1----1-1-0---0-0-----------
--------0--------------------0---------2-------0--2----1-2-
-----------------------------------2---------------------1-
----2-----3--2----0-----2-------0----------2---------2-----
-3-------------------3-------------------3--------2--------

-----------0-2-3-5-7-8-10---10--10--12---10-8-7---7-7-7----8-8--
---------------------------------8------------------8--------10-
-0------0------------------------7------------0-----7----9---9--
------2-------------------9---------10-9----7---0------------10-
----2-------------------------------------------------0---------
-0---------------------7----------------------------------------

-7----7-7--5---4-5s3-0----0-------
--------8--------4-----0--------0-
----4---7----4---------0----------
-5---------------7----------------
-----------2----------------------
-------------------0---------3----

-0--0-----------0---------------2--2-2-0-----------------------
------4-5-7-8---0------1--------1----1---1-0---------------0-1-
-0--------------0---0-----------2----2-------------0---0-2-----
------4-5-7-9-----2-------------0---------------0----4---------
--------------3-----------2-3-4---------------2----------------
-0-----------------------------------------3-------------------

----------0------------------------------------------------
-3----3-3------3--1--0-----0-0--1----1-1-0---0-0-----------
--------0--------------------0---------2-------0--2----1-2-
-----------------------------------2---------------------1-
----2-----3--2----0-----2-------0----------2---------2-----
-3-------------------3-------------------3--------2--------

-----------0-2-3-5-7-8-10---10--10--12---10-8-7---7-7-7----8-8--
---------------------------------8------------------8--------10-
-0------0------------------------7------------0-----7----9---9--
------2-------------------9---------10-9----7---0------------10-
----2-------------------------------------------------0---------
-0---------------------7----------------------------------------

-7----7-7--5---4-5s3-0----0-------
--------8--------4-----0--------0-
----4---7----4---------0----------
-5---------------7----------------
-----------2----------------------
-------------------0---------3----

-3-------------2----3--5--4--5--7---7-7-7--6-7-8-5-8-8--8---7-6-
------------0----------4----------8---8------8---5---10---8---7-
------------------2---------------9----------9---5---9----------
---------2-------------4-----4--------9--------------10---------
------2--------2----------------------------------------0-------
-0--3---------------------------0-------0------0----------------

-7-----------------7-8-----8--10-12----10-8--7---7-7-8-----8--8---
-8--8---8--------8---10----10-12-13----12-10-8---8-8-10----10-10--
-7----7--------7-----------------12-------------------------------
-9----9------9----------10----12----12----10-9-9---9-10-10----10--
-10-------10---------0--------------------------------------------
-7----------------------------------------------------------------

-7----7-7--5---4-5-3--0---0-2-3-5-7-8-10---10-10-12---10-8-
-8------8--7-----7------0---------------------8------------
------------------------0---------------------7------------
-9--9---9--------------------------------9-------10-9----7-
-----------6-5---6-----------------------------------------
-------------------0------------------7--------------------

-7---7-7-8--0-8-8--7---7-7-----------3-|
-------8--------10-------8-10---9-10-5-|
-0-----7--------9--0-----7--------8--4-|
---0------------10---9--------9---7--2-|
---------0-----------------------------|
---------------------------7---------0-|

s: slide

suena bien califiquen

 A
        A        
tahualpa Yupanqui

Este fichero es trabajo propio de su transcriptor y representa su interpretación personal de la canción. El material contenido en esta página es para exclusivo uso privado, por lo que se prohibe su reproducción o retransmisión, así como su uso para fines comerciales.