At The Drive In - Alpha Centauri (TAB)


Intro: 
gtr1:                  gtr2: 
e|-------------------|---------------------| 
b|-------------------|---------------------| 
g|-------------------|---------------------| 
d|-------------------|---------------------| 
a|-------|---------------------| 
e|-------|---000000000000557---| 
 
Verse: 
                x3                 x1 
 gtr1: 
e|-----------------------|---------------------| 
b|-----------------------|---------------------| 
g|-----------------------|---7-7-7-7-7-7-7-7---| 
d|-----------------------|---7-7-7-7-7-7-7-7---| 
a|-----------|---5-5-5-5-5-5-5-5---| 
e|----557----|---------------------| 
 
gtr2: 
e|-----------------------|----------------------| 
b|-----------------------|----------------------| 
g|---11-11-11-11/12-11---|---7-9-11-11/1211-----| 
d|-----------------------|----------------------| 
a|---9--9--9--9/10--9----|---5-7--9--9/109------| 
e|-----------------------|----------------------| 
 
  both guitars 
e|-----------------------------------------| 
b|---6-6-6-6-6-6-6---5-5-5-5-5-5-----| 
g|---6-6-6-6-6-6-6------5-5-5-5-5-5--------| 
d|---6-6-6-6-6-6-6------5-5-5-5-5-5--------| 
a|---4-4-4-4-4-4-4------3-3-3-3-3-3--------| 
e|-----------------------------------------| 
 
Bridge: 
  gtr1: 
e|-----------------------------------------------------| 
b|-----------------------------------------------------| 
g|---7-7-7-7-7-7-7-7-----------------------------------| 
d|---7-7-7-7-7-7-7-7-9-9-9-9-9-9-9-9-7-7-7-7-7-7-7-7---| 
a|---5-5-5-5-5-5-5-5-9-9-9-9-9-9-9-9-7-7-7-7-7-7-7-7---| 
e|-------------------7-7-7-7-7-7-7-7-5-5-5-5-5-5-5-5---| 
  
  gtr2: 
e|-----------------------------------------------------| 
b|-----------------------------------------------------| 
g|-----------------------------------------------------| 
d|---55-4-2---55-4-2---2--0--2--0-0--------------------| 
a|--------------------------------------| 
e|--------------------------------------| 
 
 both guitars 
e|--------------------------------| 
b|--------------------------------| 
g|--------------------------------| 
d|--------------------------------| 
a|--------------------------------| 
e|---333222333232--333222333232---| 
 
Bridge2: 
  gtr1: 
e|------------|----------------------------------| 
b|------------|---5-----------------5------------| 
g|------------|---------4---4h5p4---------4------| 
d|---5p4h5p4--|-----5-0---0-----------5-0----7---| 
a|------------|----------------------------------| 
e|------------|----------------------------------| 
 
 gtr2: 
e|-----------7-7-7----------------| 
b|-------8-8-8-8-8------8-----8---| 
g|-----9-9-9-9-9-9----9-9---9-9---| 
d|--------------------------------| 
a|---0----------------------------| 
e|------------------8-----7-------| 
 
End: 
e|-------0------------0-----0---------7----------0-----0---| 
b|-------8-------------------------8----8------------------| 
g|-----9---9--------7-----7------9--------9----7-----7-----| 
d|-----------7---------------------------------------------| 
a|---0---------0---------------0---------------------------| 
e|----------------8-----7--------------------8-----7-------| 
 
e|---------10----------0-----0-----0------------0-----0-------| 
b|-------8----8--------------------8--------------------------| 
g|-----9--------9----7-----7-----9---9--------7-----7-----9---| 
d|-------------------------------------7-----------------7----| 
a|---0-------------------------0---------0--------------0-----| 
e|-----------------8-----7------------------8-----7-----------|

Este fichero es trabajo propio de su transcriptor y representa su interpretación personal de la canción. El material contenido en esta página es para exclusivo uso privado, por lo que se prohibe su reproducción o retransmisión, así como su uso para fines comerciales.