La flor del jazmín (TAB)


--Intro

e------------------------------------------------
B--12-------9-10--9---------------------9-12-11--
G--------11---------11-8----/8-11-/13-9----------
D------------------------------------------------
A------------------------------------------------
E------------------------------------------------

E-----------11-9-----------11-9---
B----12-------------12------------
G-------11--------------11--------
D--13-----13-------13-----13------
A---------------------------------
E---------------------------------


e--------------------------------------------------------
B--12-------9-10--9------------------------------9-12-11-
G--------11---------11-8-------------/8-11-/13-9---------
D------------------------11-10---------------------------
A------------------------------12-11---------------------
E--------------------------------------------------------

E-----------11-9-----------11-9---
B----12-------------12------------
G-------11--------------11--------
D--13-----13-------13-----13------
A---------------------------------
E---------------------------------


--A)

B
        B        
   A
        A        
Abm
       Abm       
  Fui muy callado al jardín C#m
       C#m       
  E
        E        
F#
       F#       
  B
        B        
donde florece el jazmín  A
        A        
Abm
       Abm       
  que nadie ha de cortar C#m
       C#m       
  E
        E        
F#
       F#       
 B
        B        
  y lo he arrancado de raíz  A
        A        
Abm
       Abm       
  Me senté muy tranquilo a esperar C#m
       C#m       
   E
        E        
F#
       F#       
   B
        B        
la aparición de su guardián A) fui trasladado a un salón relleno de un ruido infernal y pude distinguir mis canciones favoritas sonando al mismo tiempo y con el volumen que ya no da más puente: B
        B        
-C#m- F#
       F#       
  B
        B        
  Abm
       Abm       
   E
        E        
F#
       F#       
  Para accionar este viaje sin fin B
        B        
  Abm
       Abm       
   E
        E        
F#
       F#       
   B
        B        
fue que corté esa flor del Jazmín  A
        A        
aaaaa B
        B        
   A
        A        
Abm
       Abm       
  Me colocaron delante de un portal C#m
       C#m       
   E
        E        
F#
       F#       
  y me empujaron dentro --arpegio B
        B        
  corté toda la conexión B* borré la huella que dejé Abm*  E7
       E7       
* quemé mi ropa en un tambor B
        B        
  no sé lo que dirán de mi B* ni se lo que quisiera oír Abm*  E7
       E7       
*  E
        E        
F#
       F#       
  no miro lo que voy dejando atrás --Puente B
        B        
  Abm
       Abm       
   E
        E        
F#
       F#       
  Para accionar este viaje sin fin B
        B        
  Abm
       Abm       
   E
        E        
F#
       F#       
   B
        B        
fue que corté esa flor del Jazmín  A
        A        
aaaaa B
        B        
   A
        A        
Abm
       Abm       
  Van 4 años de un nuevo amanecer C#m
       C#m       
   E
        E        
F#
       F#       
  y el sol recién calienta corté toda la conexión borré la huella que dejé quemé mi ropa en un tambor no sé lo que dirán de mi ni se lo que quisiera oír no miro lo que voy dejando atrás Termina en B
        B        
B* 223442 Abm* 464447 E7* 454464

 A
        A        
ses F
        F        
alsos

Este fichero es trabajo propio de su transcriptor y representa su interpretación personal de la canción. El material contenido en esta página es para exclusivo uso privado, por lo que se prohibe su reproducción o retransmisión, así como su uso para fines comerciales.