Estudiar y trabajar (TAB) (3)


Solo Tab

e-----------------------------------------------------------------
B-----------------------------------------------------------------
G--17-19-----19-19-19---17-17-------------------------------------
D--^^--------------------------19-19---15-15----------------------
A---------------------------------------------17-17---------------
E-----------------------------------------------------------------

e-----------------------------------------------------------------
B-----------------------------------------------------------------
G-----------------------------------------------------------------
D--20-20-20----19-19---17-17---15-15------------------------------
A-------------------------------------13-13-----------------------
E-----------------------------------------------------------------

e-----------------------------------------------------------------------
B-----------------------------------------------------------------------
G--19-19-19---17-17------------------------------------17---------------
D---------------------19-19---15-15----------15-17-19-----19---20-19-17-
A------------------------------------17-17------------------------------
E-----------------------------------------------------------------------

e----------
B----------
G-19-20-19-
D----------
A----------
E----------

 A
        A        
ses F
        F        
alsos

Este fichero es trabajo propio de su transcriptor y representa su interpretación personal de la canción. El material contenido en esta página es para exclusivo uso privado, por lo que se prohibe su reproducción o retransmisión, así como su uso para fines comerciales.