Somos novios (TAB) (3)


Esta es la canción Somos novios, espero que les guste y sigan
siempre con la guitarra. Ricardo.



1|--7-5-8-7--7-5-8-7-8-7-8-7-10-9-8--7---7-5-8-7-
2|------------------------—----------------------
3|-----------------------------------------------
4|-----------------------------------------------
5|-----------------------------------------------
6|-----------------------------------------------

1|----7-5-8-7-8-7-8-7-8-10/12-12-10--8-7-10-8----
2|------------------------—----------------------
3|-----------------------------------------------
4|-----------------------------------------------
5|-----------------------------------------------
6|-----------------------------------------------

1|---8-7-10--8-10-8-10-8-10-9-8-7---7-8-7-12-10-8-7-7-5--
2|------------------------—------------------------------
3|-------------------------------------------------------
4|-------------------------------------------------------
5|-------------------------------------------------------
6|-------------------------------------------------------


1|--5-7-5-7--5-7-5-7-5--5-3-5-3-2—--
2|------------------------—---------
3|----------------------------------
4|----------------------------------
5|----------------------------------
6|----------------------------------

payasito864

 A
        A        
rmando Manzanero

Este fichero es trabajo propio de su transcriptor y representa su interpretación personal de la canción. El material contenido en esta página es para exclusivo uso privado, por lo que se prohibe su reproducción o retransmisión, así como su uso para fines comerciales.



Buscar canción en YouTube Buscar cover en YouTube


Más canciones