Te Metiste (TAB) (3)


Intro - Requinto

E|--12--12--10--12--10--12--10--12--10--12--10--10----10--10----10--
B|--13--13--12--13--12--13--12--13--12--13--12--12----12--12----12--
G|------------------------------------------------------------------
D|------------------------------------------------------------------
A|------------------------------------------------------------------
E|------------------------------------------------------------------


E|----7--7--8---10------10------10---------12--10--7-------7-----7----
B|----8--8--10--12--12--12--12--12--12-----13--12--8----8-----8-----8/
G|------------------12------12------12-----------------------------
D|-----------------------------------------------------------------
A|-----------------------------------------------------------------
E|-----------------------------------------------------------------


E|--12--12--12--10--8---10--12----12--12--12----8---8---
B|--13--13--13--12--10--12--13----13--13--13----10--10--
G|--_--------------------------------------------------
D|--_--------------------------------------------------
A|--_--------------------------------------------------
E|--_--------------------------------------------------


E|--14--12--12--10--10--8---8---7--7--5--5--3--3--2-----
B|--15--13--13--12--12--10--10--8--8--7--7--5--5--3-----
G|--_--------------------------------------------------
D|--_--------------------------------------------------
A|--_--------------------------------------------------
E|--_--------------------------------------------------


E|--5--8---7-----------------------------------------
B|--7--10--8--8--7--5--------------------------------
G|---------------------7--5--4-----------------------
D|------------------------------7--5--5--5--5--5--5--
A|---------------------------------------------------
E|---------------------------------------------------


E|----------------------------------------------------------------
B|------------------------------------5--7/8--5------------------
G|--4--4--4--4--4--4--7--7--7--7--7--------------7--5--4---------
D|---------------------------------------------------------7--5--
A|----------------------------------------------------------------
E|----------------------------------------------------------------


E|--------------------
B|---------------7/8--
G|--4--4--4h7---------
D|--------------------
A|--------------------
E|--------------------

G
        G        
   G
        G        
Como te pago todas las noches G7
       G7       
   C
        C        
Todas las veces que me has hecho tan feliz C
        C        
  Tu te entregas totalmente D
        D        
   G
        G        
Me demuestras que eres solo para mi G
        G        
  Como te digo, como te explico G7
       G7       
   C
        C        
Que necesito estarte haciendo sonreir  C
        C        
 D
        D        
No puedo ver tu carita destrozada  D
        D        
Por el llanto y la tristeza  G
        G        
G7
       G7       
  Porque me pone a sufrir... C
        C        
   D
        D        
Te metiste completamente en mi vida G
        G        
  No hay un momento que no este G7
       G7       
  Pensando en ti C
        C        
   D
        D        
Y te metiste como el agua entre mis manos G7
       G7       
  Para quedarte siempre, siempre junto a mi C
        C        
   D
        D        
Y te metiste así como no queriendo Me ilusionaste, me enamoraste y  G
        G        
Hoy soy solo para ti... Como te digo...

 A
        A        
riel C
        C        
amacho

Este fichero es trabajo propio de su transcriptor y representa su interpretación personal de la canción. El material contenido en esta página es para exclusivo uso privado, por lo que se prohibe su reproducción o retransmisión, así como su uso para fines comerciales.



Buscar canción en YouTube Buscar cover en YouTube


Más canciones