Por no perderte te perdí (TAB)


REQUINTO:

E|--------------------------------------------------
B|--4--9--7--9--7--5--4--7--7----7--7--7--7----9--7--
G|--4--9--8--9--8--6--4--8--8----8--8--8--8----9--8--
D|--------------------------------------------------
A|--------------------------------------------------
E|--------------------------------------------------

E|-------------------------
B|--9--7--5--4--9--7--5--4--
G|--9--8--6--4--9--8--6--4--
D|-------------------------
A|-------------------------
E|-------------------------

E|------------------------------------------
B|--4/11----11--11----11--11--11----11--11--
G|--4/11----11--11----11--11--11----11--11--
D|------------------------------------------
A|------------------------------------------
E|------------------------------------------

E|------------------------------
B|----11--9--9--7--11--9--9--7--
G|----11--9--9--8--11--9--9--8--
D|------------------------------
A|------------------------------
E|------------------------------

E|----------------------------
B|--7/9---9--9--9----9--9--7--
G|--8/9---9--9--9----9--9--8--
D|----------------------------
A|----------------------------
E|----------------------------

E|-------------------------
B|--9--7--5--4--9--7--5--4--
G|--9--8--6--4--9--8--6--4--
D|-------------------------
A|-------------------------
E|-------------------------

E|--------------------------------
B|--2--5----7--9--7----7--7--5--4--
G|--3--6----8--9--8----8--8--6--4--
D|--------------------------------
A|--------------------------------
E|--------------------------------

E|------------------------------------
B|------------------------------------
G|--4--3------------------------------
D|--------6--4--6--4------------------
A|--------------------7--6--7--6--7---
E|------------------------------------

E|-----------------------------------------------------
B|-----------------------------------------------------
G|-----------------------------------------------------
D|--6--4-----6--4-----6--4-----6--4--------------------
A|--------7--------7--------7--------7--6--7--6--4-----
E|--------------------------------------------------7--

E|--7--7--7--7--------------
B|--7--7--7--7--------------
G|--8--8--8--8--------------
D|--9--9--9--9--6--6--8--9--
A|--x--x--x--x--------------
E|--7--7--7--7--------------

SI
       SI       
  Aquí estoy ahogando tus recuerdos MI
       MI       
  añorando cada uno de tus besos  FA#
       FA#       
7 como duele recordar que te perdí MI
       MI       
   FA#
       FA#       
7 SI
       SI       
  la soledad me está calando hasta los huesos... SI
       SI       
   SI
       SI       
7 Aquí estoy sintiendo que me muero MI
       MI       
  pues no puedo demostrarte que te quiero  FA#
       FA#       
7 soy un idiota por haberte hecho sufrir MI
       MI       
   FA#
       FA#       
7 SI
       SI       
  quiero gritarlo que lo sepa el mundo entero...  FA#
       FA#       
7 SI
       SI       
  "Por No Perderte Te Perdí"  FA#
       FA#       
7 malditos celos que se adueñan de mi mente DO#m
       DO#m      
amarte tanto me hizo actuar tan inocente MI
       MI       
   FA#
       FA#       
7 ya lo bonito de tu amor ya no lo vi... SI
       SI       
  "Por No Perderte Te Perdí"  FA#
       FA#       
7 y arrepentirte ahora ya no sirve de nada DO#m
       DO#m      
que quede claro que te amé con toda el alma MI
       MI       
   FA#
       FA#       
7 pero no supe demostrar lo que sentí SI
       SI       
  por no perderte te perdí... Aquí estoy sintiendo que me muero pues no puedo demostrarte que te quiero soy un idiota por haberte hecho sufrir quiero gritarlo que lo sepa el mundo entero... "Por No Perderte Te Perdí" malditos celos que se adueñan de mi mente amarte tanto me hizo actuar tan inocente ya lo bonito de tu amor ya no lo vi... "Por No Perderte Te Perdí" y arrepentirte ahora ya no sirve de nada que quede claro que te amé con toda el alma pero no supe demostrar lo que sentí por no perderte te perdí...

 A
        A        
riel C
        C        
amacho

Este fichero es trabajo propio de su transcriptor y representa su interpretación personal de la canción. El material contenido en esta página es para exclusivo uso privado, por lo que se prohibe su reproducción o retransmisión, así como su uso para fines comerciales.



Buscar canción en YouTube Buscar cover en YouTube


Más canciones