Who The Fuck Are Arctic Monkeys


ok i knicked this tab off bassmasta ages ago and found out a week ago it was closed 
its not on ultimate-guitar so i posted it up.i never got the author for this tab but it 
well for me anyway.

It seems kinda long, but the order just changes randomly.

Riff 1
-------------------------------------------------|
-------------------7-----------------------------|
----------7h9--7h9--9----------------------------|
-5h7--5h7----------------------------------------|

Riff 2
-----------------------------------------------------|
-----------------------------------------------------|
------------7h9--7h9---------------------------------|
--5h7--5h7-------------------------------------------|

Riff 3
-----------------------------------------------------|
-----------------------------------------------------|
-10--10-10--7--7-7-----------------------------------|
-----------------------------------------------------|

Riff 4
----------------------------------------------------|
----------------------------------------------------|
----------5555--------------------------------------|
-77777777------5555---------------------------------|

Riff 5
-------------------------------------------------------|
-------------------------------------------------------|
----------9-99999-9-99999-9-9999999999999--------------|
-77777777----------------------------------------------|

Riff 6
--------------------------------------------------------|
---------------------9----------------------------------|
----------9h11--9h11---11-------------------------------|
-7h9--7h9-----------------------------------------------|

Riff 7
-----------------------------------------------------|
-----------------------------------------------------|
-12--12-12--9--9-9-----------------------------------|
-----------------------------------------------------|

Riff 8
---------------------------------------------------|
---------------------------------------------------|
---------------------------------------------------|
-7777777777777777----------------------------------|

Riff 9
------------------------------------------------------|
------------------------------------------------------|
------------------------------------------------------|
-77p0777p0777p0777p0-7/10-10101010101010-55555555-----|

Riff 10
-----------------------------------------------------|
-------------------------------------9---------------|
-------7-9-------7-9--10--1010-7--77---11------------|
-7--77-----7--77-------------------------------------|

Order:
Riff 1  x4     Riff 1  x1     Riff 8  x4
Riff 2  x1     Riff 3  x2     Riff 9  x14
Riff 1  x1     Riff 1  x1     D
        D        
rum solo thingy Riff 3 x1 Riff 4 x3 Riff 10 x4 Riff 1 x3 Riff 5 x1 Riff 3 x1 Riff 2 x1 Riff 1 x1 Riff 1 x3 Riff 4 x3 Riff 2 x1 Riff 5 x1 Riff 1 x1 Riff 1 x2 Riff 2 x2 Riff 2 x1 Riff 6 x2 Riff 1 x3 Riff 7 x1 Riff 3 x1 Riff 1 x1 Riff 1 x1 Riff 1 x1 Riff 2 x1 Riff 3 x1

Arctic Monkeys
(Guitar chords, ukelele, keyboard, tabs, bass, drums and lyrics)

Este fichero es trabajo propio de su transcriptor y representa su interpretación personal de la canción. El material contenido en esta página es para exclusivo uso privado, por lo que se prohibe su reproducción o retransmisión, así como su uso para fines comerciales.



Buscar canción en YouTube Buscar cover en YouTube


Más canciones