Teddy Picker



E|----------------------------------------|
B|----------------------------------------|
G|----------------------------------------|
D|----------------------------------------|
A|-----6-5-------6-5-------6-5-------6-5--|
E|-5-5-----4-5-5-----4-5-5-----4-5-5------|


E|--------------------------------------------|
B|--------------------------------------------|
G|--------------------------------------------|
D|--------------------------------------------|
A|-----------------------------6-5-------6-5--|
E|-5-0-0-4-0--5-0-0-4-0--7-5-5-----4-5-5------|


E|------------|
B|------------|
G|------------|Repeat
D|------------|
A|--------6-5-|
E|-4-5-5------|


E|----------------------------------------|
B|----------------------------------------|
G|----------------------------------------|
D|----------------------------------------|
A|-----6-5-------6-5-------6-5-------6-5--|
E|-5-5-----4-5-5-----4-5-5-----4-5-5------|


Refrϣo:


E|-----------------------------------------|
B|--------13-15-12----10101010101010101010-|
G|----14--------------99999999999999999999-|
D|-15-----------------77777777777777777777-|
A|-----------------------------------------|
E|-----------------------------------------|


E|------------------------------------|
B|------13-15-12----------------------|
G|---14-----------8888888888888888888-|
D|15--------------8888888888888888888-|
A|----------------6666666666666666666-|
E|------------------------------------|


E|-----------------|
B|-----------------|
G|-----------------|
D|-----------------|
A|------0-6-5------|Repeat
E|--5-5------------|


Depois


E|---------------------|
B|---------------------|
G|---------------------|
D|---------------------|
A|------6-5--------6-5-|
E|--5-5-----4-5-5------|


Refrϣo:


E|-----------------------------------------|
B|--------13-15-12----10101010101010101010-|
G|----14--------------99999999999999999999-|
D|--------------------77777777777777777777-|
A|-----------------------------------------|
E|-----------------------------------------|


E|-----------------------------------------|
B|--------13-15-15-13-12-10----------------|
G|-----14-------------------9--------------|
D|--15-------------------------------------|
A|-----------------------------------------|
E|-----------------------------------------|


(solo)


E|-0-0-0--5/13-12---12-12-12-12/15-15-15--|(x2)
B|----------------------------------------|
G|----------------------------------------|
D|----------------------------------------|
A|----------------------------------------|
E|----------------------------------------|


E|--0-0---17---------------------15-15-15----0-0-17-------------------|
B|-----------18-17---17-17-17-17--------------------18-17-15-13-12-10-|
G|--------------------------------------------------------------------|
D|--------------------------------------------------------------------|
A|--------------------------------------------------------------------|
E|--------------------------------------------------------------------|


E|--5-5/-17-17t---5-5/17-17t--5-5/17-17t---5-5/17-17t---|
B|--5-5-----------5-5---------5-5----------5-5----------|
G|------------------------------------------------------|
D|------------------------------------------------------|
A|------------------------------------------------------|
E|------------------------------------------------------|


E|--17-17-17--17-17-15--15-15-13--13-12-----------------17--|
B|--------------------------------------13-12----17---------|
G|--------------------------------------------14------------|
D|----------------------------------------------------------|
A|----------------------------------------------------------|
E|----------------------------------------------------------|


Cai para o RefrÏ£o;(Parte F
        F        
inal) E|-----------------------------------------| B|--------13-15-12----10101010101010101010-| G|----14--------------99999999999999999999-|(2x) D|-15-----------------77777777777777777777-| A|-----------------------------------------| E|-----------------------------------------| Depois: E|--------------------------------| B|-----------10--1010101010101010-| G|---10--9----9--9999999999999999-| D|---10--9----7--7777777777777777-| A|----8--7------------------------| E|--------------------------------| E|-------------------------------| B|-----------10------------------| G|---10--9----9----888888888888--| D|---10--9----7----888888888888--| A|----8--7---------666666666666--| E|-------------------------------| E|----------------------------------------| B|----------------------------------------| G|----------------------------------------| D|----------------------------------------| A|-----6-5-------6-5-------6-5-------6-5--| E|-5-5-----4-5-5-----4-5-5-----4-5-5------| E|----------------------------------------| B|----------------------------------------| G|----------------------------------------| D|----------------------------------------| A|----------------------------------------| E|-5-0-0-4-0--5-0-0-4-0--4-------5--------| (Alex usa uma espécie de Tremolo/Phaser (Vibrato nas notas na 17ª casa) pra tocar esse solo)

Arctic Monkeys
(Guitar chords, ukelele, keyboard, tabs, bass, drums and lyrics)

Este fichero es trabajo propio de su transcriptor y representa su interpretación personal de la canción. El material contenido en esta página es para exclusivo uso privado, por lo que se prohibe su reproducción o retransmisión, así como su uso para fines comerciales.



Buscar canción en YouTube Buscar cover en YouTube


Más canciones