R U Mine


Intro:
E|-----|
B|-----|
G|-----|
D|-----|
A|-----|
E|-2~~-|


E|---------------------------------------|
B|---------------------------------------|
G|---------------------------------------|
D|---------------------------------------| 3x 
A|---------------------5--5-5-4-2-2/14--|
E|2-2-2-----7h9--7h9---------------------|


Intro e Verso:


E|-----------------------------------------|
B|-----------------------------------------|
G|-----------------------------------------|
D|-----------------------------------------|
A|----------------------5--5-5-4-2--2-2--0-|
E|-2-2-2-2---7h9--7h9----------------------|


Refrϣo:


E|-------------------------------------------|
B|-------------------------------------------|
G|-------------------------------------------|
D|-------------------7-----------------------| 2x 
A|---------------7h9---9-7-5--5-5-4-2--2-2-0-|
E|-2-2--2-2--7h9-----------------------------|


E|-----------------------------------------------------|
B|-----------------------------------------------------|
G|-----------------------------------------------------|
D|-------------------7--9p7----------------------------|
A|---------------7h9--------9p7--5--5-5-4-2--2-4p2-4p2-|
E|-2-2-2-2---7h9---------------------------------------|


E|----------------------------------------------------|
B|----------------------------------------------------|
G|----------------------------------------------------|
D|------------------7---------------------------------|
A|--------------7h9---9-7-5--5-5-4-2--2-2-0-----------|
E|-2-2-2-2--7h9------------------------------2-2-2-2--|


E|------------------------------|
B|------------------------------|
G|-7--7-7--6--4--4-4------------|
D|-x--x-x--x--x--x-x------------| 3x 
A|-5--5-5--4--2--2-2-0----------|
E|---------------------2-2-2-2--|


E|------------------------------------------------|
B|------------------------------------------------|
G|------------------------------------------------|
D|------------------------------------------------|
A|-----7h9-----7h9--------------------------------|
E|-7h9-----7h9-----7h9-10-10-10-9--7--5--2-2-2-2--|


Agora na segunda parte é baixo e voz;

Depois vem a ponte para entrar no refrϣo:


E|----------------------|
B|----------------------|
G|-7--7-7--6--4--4-4----|
D|-x--x-x--x--x--x-x----|
A|-5--5-5--4--2--2-2-0--|
E|----------------------|


Depois cai para o mesmo refrϣo:


E|------------------------------------------|
B|------------------------------------------|
G|------------------------------------------|
D|------------------7-----------------------| 2x 
A|--------------7h9---9-7-5--5-5-4-2--2-2-0-|
E|-2-2-2-2--7h9-----------------------------|


E|-----------------------------------------------------|
B|-----------------------------------------------------|
G|-----------------------------------------------------|
D|-------------------7--9p7----------------------------|
A|---------------7h9--------9p7--5--5-5-4-2--2-4p2-4p2-|
E|-2-2-2-2---7h9---------------------------------------|


E|-------------------------------------------|
B|-------------------------------------------|
G|-------------------------------------------|
D|------------------7------------------------|
A|--------------7h9---9-7-5--5-5-4-2--2-2-0--|
E|-2-2-2-2--7h9------------------------------|


E|-----------------------------|
B|-----------------------------|
G|-7--7-7--6--4--4-4-----------|
D|-x--x-x--x--x--x-x-----------| 3x 
A|-5--5-5--4--2--2-2-0---------|
E|---------------------2-2-2-2-|


(Cai do Refrϣo direto para o intervalo e solo)


E|----------------------------------------------------------------|
B|----------------------------------------------------------------|
G|----------------------------------------------------------------|
D|----------------------------------------------------------------|
A|-----7h9-----7h9------------------------------------------------|
E|-7h9-----7h9-----7h9-10-10-10-9---12--9--7--7-7--7-7--7-7-9-10--|


Intervalo e solo:

E|-----------------------------------------------------------------|
B|-----------------------------------------------------------------|
G|-----------------------------------------------------------------|
D|-----------------------------------------------------------------|
A|-----------------------------------------------------------------|
E|-10-10--10-10--10-102--2-2--2-2--2-2-4-5--5-5--5-5--5-5/7--7-7--|


(Intervalo e solo)


E|---------------------------------------------------------------|
B|-------------------------------------------------------7h10b12-|
G|---------------------------------------------------6h9---------|
D|-----------------------------------------------7h9-------------|
A|-------------------------------------------7h9-----------------|
E|-7-7--7-7-9-10-9-9-7-7-5-5-0--2-2-2-2--7h9---------------------|


E|----------------------------------------------------------------|
B|-10--5b7--5~---------------------------------------------------|
G|----------------------------------------------------------------|
D|----------------------------------------------------------------|
A|-----------------------0h2p0-2p0-2p0-2p0-2p0-2p0-------2-2-2-2--|
E|--------------2-2-2-2-------------------------------------------|


RefrÏ£o F
        F        
inal: E|----------------------------------------------------------------| B|----------------------------------------------------------------| G|----------------------------------------------------------------| D|------------------7---------------------------------------------| A|--------------7h9---9-7-5--5-5-4-2--2-2-0--------------7h9-9-9--| E|-2-2-2-2--7h9-----------------------------2-2-2-2--7h9----------| RefrÏ£o F
        F        
inal: E|----------------------------------------------------------------| B|----------------------------------------------------------------| G|----------------------------------------------------------------| D|------------------------------------------------7---------------| A|-7h9-9-9-5--5-5-4-2--2-4p2-4p2--------------7h9---9-7-5--5-5-4--| E|-------------------------------2-2-2-2--7h9---------------------| E|-----------------------------------------------------------------| B|-----------------------------------------------------------------| G|-----------------------------------------------------------------| D|-----------------------------------------------------------------| A|-2--2-2-0--------------7h9-----7h9-----5--5-5-4-2--2-2-0---------| E|----------2-2-2-2--7h9-----7h9-----7h9-------------------2-2-2-2-| (Essa parte é a finalzinha, onde a guitarra imita a voz de A
        A        
lex Turner) E|------------------------------------------------------------| B|--/7--/10--/12--/10--/12b14--10~----/7--/10--/12--/10--/7~--| G|------------------------------------------------------------| D|------------------------------------------------------------| A|------------------------------------------------------------| E|------------------------------------------------------------| Se vocês quiserem podem fazer aquele vibrato que acontece em algumas partes da música que é feita pela segunda guitarra, mas dá pra fazer pela primeira: E|------| B|------| G|------| D|------| A|------| E|--3~~-|

Arctic Monkeys
(Guitar chords, ukelele, keyboard, tabs, bass, drums and lyrics)

Este fichero es trabajo propio de su transcriptor y representa su interpretación personal de la canción. El material contenido en esta página es para exclusivo uso privado, por lo que se prohibe su reproducción o retransmisión, así como su uso para fines comerciales.



Buscar canción en YouTube Buscar cover en YouTube


Más canciones