Matador


0:35 to 1:52
E--3-3-3-3-----6-6-------------------------|    can be played without the
A----------5-5-----4-0-4-4-0-4-4-0-4-4-0-4-|    without the open notes
D------------------------------------------|
G------------------------------------------|

2:02 to 3:33
E--3-3h-----4-4h-----|
A------5-5h-----3-3--|h
D--------------------|
G--------------------|

3:34 to 4:30
E--3-3-3-3-3-------4-4-4-4-4-------|
A------------5-5-5-----------3-3-3-|
D----------------------------------|
G----------------------------------|

Finish on...
E--3/-------|
A-----------|
D-----------|
G-----------|

Arctic Monkeys
(Guitar chords, ukelele, keyboard, tabs, bass, drums and lyrics)

Este fichero es trabajo propio de su transcriptor y representa su interpretación personal de la canción. El material contenido en esta página es para exclusivo uso privado, por lo que se prohibe su reproducción o retransmisión, así como su uso para fines comerciales.



Buscar canción en YouTube Buscar cover en YouTube


Más canciones