If You Found This Its Probably Too Late


Tabbed by: San Miguel
Email:*

Tuning: Standard

Part 1

e|-12--17--12--17--12--17--12--18--|
B|---------------------------------|
G|---------------------------------|
D|---------------------------------|
A|---------------------------------|
E|---------------------------------|


Part 2

e|---------------------------------------------------------------------------|
B|---------------------------------------------------------------------------|
G|-------------8-8--7-7--5-5--------------7-7--5-5------------------10-10----|
D|-7-7-7--7-7--8-8--7-7--5-5--6-6-6--6-6--7-7--5-5-6-6--7-7-7--7-7--10-10----|
A|-7-7-7--7-7--6-6--5-5--3-3--6-6-6--6-6--5-5--3-3-6-6--7-7-7--7-7--8--8-----|
E|-5-5-5--5-5-----------------4-4-4--4-4-----------4-4--5-5-5--5-5-----------|


e|-------------------------------------|
B|-------------------------------------|
G|-9-9--5-5--------------7-7--5-5------|
D|-9-9--5-5--6-6-6--6-6--7-7--5-5-6-6--|
A|-7-7--3-3--6-6-6--6-6--5-5--3-3-6-6--|
E|-----------4-4-4--4-4-----------4-4--|


Part 3

e|-------------------------------|
B|-------------------------------|
G|------8-------8-------8-----8--|
D|-7--7-8--7--7-8--7--7-8--7--8--|
A|-7--7-6--7--7-6--7--7-6--7--6--|
E|-5--5----5--5----5--5----5-----|


Part 4

e|-12--17--11--17--12--17--11--18--|
B|---------------------------------|
G|---------------------------------|
D|---------------------------------|
A|---------------------------------|
E|---------------------------------|


Order

Part 1 x 1
Part 2 x 1
Part 3 x 1
Part 2 x 1
Part 3 x 1
Part 4 x 1 (2nd guitar plays Part 2 over it)

| /  slide up
|   slide down
| h  hammer-on
| p  pull-off
| ~  vibrato
| +  harmonic
| x  Mute note
===============================================================================

Arctic Monkeys
(Guitar chords, ukelele, keyboard, tabs, bass, drums and lyrics)

Este fichero es trabajo propio de su transcriptor y representa su interpretación personal de la canción. El material contenido en esta página es para exclusivo uso privado, por lo que se prohibe su reproducción o retransmisión, así como su uso para fines comerciales.



Buscar canción en YouTube Buscar cover en YouTube


Más canciones