I Bet You Look Good On The Dancefloor




Intro - Lead


|-------------------------|
|-------------------------|
|-------------------------|
|--4-4--------------------|
|--4-4--------------------|
|--2-2--------------------|


|-----------------------------------------------------------------------|
|-----------------------------------------------------------------------|
|----------------9--11--14--16--16b-16b-16b-16b-16b-16b-16b-16b--14-----|
|-----7--9--11----------------------------------------------------------|
|--9--------------------------------------------------------------------|
|-----------------------------------------------------------------------|


------------------------------------------------------------|
------------------------------------------------------------|
-----14-16-14--------------14-16b-14--------------14-16b----|
------------------16-14-16---------------16-14-16-----------|
------------------------------------------------------------|
------------------------------------------------------------|


-------------------------------------------------------------------------|
-------------------------------------------------------------------------|
--16-16-16-16-14-------------14------------------------------------------|
--------------------16-14-16-----16---16-16-16-16-14------------14-------|
-------------------------------------------------------16-14-16-----16---|
-------------------------------------------------------------------------|


----------------------------------------------------------------|
----------------------------------------------------------------|
----------------------------------------------------------------|
----------------------------------------------------------------|
--14-----------------14------------------14-14-14-14------------|
------17-1412/14-17-----17-1412/14-17-------------------------|



Verse
[Stop making the eyes at me..]


|----------------------------|
|----------------------------|
|--6-6--4-4------------------|
|--6-6--4-4--5-5--4-4--------|    x8
|--4-4--2-2--5-5--4-4--------|
|------------3-3--2-2--------|


Chorus
[I bet that you look good on the dancefloor..]


|----------------------------------------------------------------------|
|----------------------------------------------------------------------|
|-------------------9-----------------------9--------6-----------------|
|--4--------5-------9-x8----4-------5-------9--x8----6--x8-------------|
|--4-x8-----5-x8----7-------4-x16---5-x8----7--------4-----------------|
|--2--------3---------------2-------3----------------------------------|


Lead at end of chorus



|-----------------------------------------------------------------|
|-----------------------------------------------------------------|
|--11------9-9-9--9-9-9--7-------7-9-7-9--------9------9----------|
|------12-------------------9----------------11-----11------------|
|-----------------------------------------------------------------|
|-----------------------------------------------------------------|


----------------------------------------------------------------------|
----------------------------------------------------------------------|
-----14-----14--16--14--16b-------------------------------------------|
-16-----16------------------------------------------------------------|
----------------------------------------------------------------------|
----------------------------------------------------------------------|


Verse 2
[I wish you'd stop ignoring me..]


|------------------------------|
|------------------------------|
|--6-6--4-4--------------------|
|--6-6--4-4--5-5--4-4----------|    x8
|--4-4--2-2--5-5--4-4----------|
|------------3-3--2-2----------|


Chorus
[I bet that you look good on the dancefloor..]


|----------------------------------------------------------------------|
|----------------------------------------------------------------------|
|-------------------9------------------------9--------6----------------|
|--4--------5-------9-x8-----4-------5-------9--x8----6--x8------------|
|--4-x8-----5-x8----7--------4-x16---5-x8----7--------4----------------|
|--2--------3----------------2-------3---------------------------------|


Bridge
[Well there ain't no love, no montegues or capulets..]


|-------------------------------------------------------------------|
|-------------------------------------------------------------------|
|----------9-----------------------9--------------------------------|
|--7-------9--x8---4--------7------9--x8------------4---------------|
|--7-x8----7-------4-x16----7-x8---7----------------4--x16----------|
|--5---------------2--------5-----------------------2---------------|


Chorus
[I bet that you look good on the dancefloor..]


|-------------------------------------------------------------------------|
|-------------------------------------------------------------------------|
|--------------------9-------------------------9--------6-----------------|
|--4--------5--------9-x8----4--------5--------9--x8----6--x8-------------|
|--4-x8-----5-x8-----7-------4-x16----5-x8-----7--------4-----------------|
|--2--------3----------------2--------3-----------------------------------|


End on..


|----------|
|----------|
|----------|
|----4-----|
|----4-----|
|----2-----|


Arctic Monkeys
(Guitar chords, ukelele, keyboard, tabs, bass, drums and lyrics)

Este fichero es trabajo propio de su transcriptor y representa su interpretación personal de la canción. El material contenido en esta página es para exclusivo uso privado, por lo que se prohibe su reproducción o retransmisión, así como su uso para fines comerciales.



Buscar canción en YouTube Buscar cover en YouTube


Más canciones