I Bet You Look Good On The Dance Floor


(solo 1)

E|-----------------------------------------------------------------------------------------
B|-----------------------------------------------------------------------------------------
G|--------------------------------------------------------------14-(4x)---16-(4x)---16-(8x)
D|------------------------------------------14-(4x)---16-(4x)------------------------------
A|---------------------14-(4x)---16-(4x)---------------------------------------------------
E|--14-(4x)---17-(4x)----------------------------------------------------------------------


E|-----------------------------------------------------------------------------------------
B|-----------------------------------------------------------------------------------------
G|--14----------------------14----16----14----------------------14----16^----16-(4x)--14---
D|--------16----14----16----------------------16----14----16-------------------------------
A|-----------------------------------------------------------------------------------------
E|-----------------------------------------------------------------------------------------


E|-----------------------------------------------------------------------------------------
B|-----------------------------------------------------------------------------------------
G|---------------------14------------------------------------------------------------------
D|---16----14----16----------16----16-(4x)---14-----------------------14-------------------
A|-------------------------------------------------16----14----16------------16----14------
E|-----------------------------------------------------------------------------------------


E|-----------------------------------------------------------------------------------------
B|-----------------------------------------------------------------------------------------
G|-----------------------------------------------------------------------------------------
D|-----------------------------------------------------------------------------------------
A|---12----14----12---------------------12----14----12----------------------12----14-(4x)--
E|---------------------14----12----14---------------------14----12----14-------------------


(solo 2)

E|-----------------------------------------------------------------------------------------
B|-----------------------------------------------------------------------------------------
G|-----------------------------------------------------------------------------------------
D|-----------------------------------------------------------------------------------------
A|----14----12----14-(6x)----12--------------------------------------------------12----14--
E|--------------------------------14----14-(2x)----12----14----14----12----14--------------


E|-----------------------------------------------------------------------------------------
B|-----------------------------------------------------------------------------------------
G|-----------------------------------------------------------------14----------14----16----
D|------------------------------14----------14----16----14----16---------16----------------
A|---12----14----12----14h16----------16---------------------------------------------------
E|-----------------------------------------------------------------------------------------


E|-----------------------------------------------------------------------------------------
B|-----------------------------------------------------------------------------------------
G|---14----16-(4x)-------------------------------------------------------------------------
D|-----------------------------------------------------------------------------------------
A|-----------------------------------------------------------------------------------------
E|-----------------------------------------------------------------------------------------



Arctic Monkeys
(Guitar chords, ukelele, keyboard, tabs, bass, drums and lyrics)

Este fichero es trabajo propio de su transcriptor y representa su interpretación personal de la canción. El material contenido en esta página es para exclusivo uso privado, por lo que se prohibe su reproducción o retransmisión, así como su uso para fines comerciales.



Buscar canción en YouTube Buscar cover en YouTube


Más canciones