I Bet That You Look Good On The Dancefloort


this is a quite gd song so please rate it

I bet that u look good on the dancefloor

intro both guitarist do a f# to start then one carrys it one faster while one does the lead


e---15--------------------------------------------------------------------|
a------13--15--17---------------------------------------------------------|
d--------------------13---15---17-----------------------------------------|
g-------------------------------------13----15----16b-16b-16b-16b-16b-16b-|
b-------------------------------------------------------------------------|
e-------------------------------------------------------------------------|


e-------------------------------------------------------------------------|
a-------------------------------------------------------------------------|
d------16-14-16--------------16-14-16-------------------------------------|
g--14-------------14-16-14-------------14-16b 16-16-16-16-16-16-14--------|
b-------------------------------------------------------------------------|
e-------------------------------------------------------------------------|


on the 16b the rythem goes to this


e--9----9---9------7-7----5-5-5------2---|
a--11--11--11------9-9----7-7-7------4---|play this 7 times
d----------------------------------------|the on the other verses play it 5
g----------------------------------------|times
b----------------------------------------|
e----------------------------------------|


e-------------------------------------------------------------------------|
a-------------------------------------------------------------------------|
d--16-14-16----16---------------------11-9-11-----11----------------------|
g-----------14------11-11-11-11-11-9-----------9--------------------------|
b-------------------------------------------------------------------------|
e-------------------------------------------------------------------------|


on the chorus and the outro plat this


e--2-2-2-2-2-2-2-2-2-2-2-2--5-5-5-5-5-5-5-5-5-5-5----7-7-7-7-7-7-7-7-7-7-|
a--4-4-4-4-4-4-4-4-4-4-4-4--7-7-7-7-7-7-7-7-7-7-7----9-9-9-9-9-9-9-9-9-9-|
d------------------------------------------------------------------------|
g------------------------------------------------------------------------|
b------------------------------------------------------------------------|
e------------------------------------------------------------------------|



then on the bridge play the f# again

any Q email at *

please rate this tab.

Arctic Monkeys
(Guitar chords, ukelele, keyboard, tabs, bass, drums and lyrics)

Este fichero es trabajo propio de su transcriptor y representa su interpretación personal de la canción. El material contenido en esta página es para exclusivo uso privado, por lo que se prohibe su reproducción o retransmisión, así como su uso para fines comerciales.



Buscar canción en YouTube Buscar cover en YouTube


Más canciones