Don't Sit Down Because I've Moved Your Chair


Intro:

E|--------------------------------------------|
B|--------------------------------------------|
G|--------------------------------------------|
D|--------------------------------------------|
A|--5--5--7--5--5--7--5--5--7--5--8--7--6--5--|
D|--------------------------------------------|


Pré-Verso:

E|-------------------------------------|
B|-------------------------------------|
G|-------------------------------------|
D|-------------------------------------|
A|--5--5--7--5--5--7--5--5--7--5--8~~~-|
D|-------------------------------------|


Verso:

E|--------------------------------------------|
B|--------------------------------------------|
G|--------------------------------------------|
D|--------------------------------------------|
A|--5--5--7--5--5--7--5--5--7--5--8--7--6--5--|
D|--0--0--0--0--0--0--0--0--0--0--0--0--0--0--|


Pré-RefrÏ£o:

E|-------------------------------------|
B|-------------------------------------|
G|-------------------------------------|
D|-------------------------------------|
A|--5--5--7--5--5--7--5--5--7--5--8~~~-|
D|--0--0--0--0--0--0--0--0--0--0--0~~~-|


Refrϣo:

       F
        F        
A#
       A#       
  E|--------------------------------------------------| B|--------------------------------------------------| G|--------------------------------------------------| D|--/3--3--3--3--3--3--3--3/8--8--8--8--8--8--8--8--| A|--/3--3--3--3--3--3--3--3/8--8--8--8--8--8--8--8--| D|--/3--3--3--3--3--3--3--3/8--8--8--8--8--8--8--8--|
 D
        D        
E|--------------------------------------------------| B|--------------------------------------------------| G|--------------------------------------------------| D|--0--0--0--0--0--0--0--0--0--0--0--0--0--0--0--0--| A|-/5--5--5--5--5--5--5--5-/5--5--5--5--5--5--5--5--| D|--0--0--0--0--0--0--0--0--0--0--0--0--0--0--0--0--|
Final do RefrÏ£o:  A
        A        
 G
        G        
E|--------------------------------------------------| B|--------------------------------------------------| G|--------------------------------------------------| D|--/3--3--3--3--3--3--3--3/8--8--8--8--8--8--8--8--| A|--/3--3--3--3--3--3--3--3/8--8--8--8--8--8--8--8--| D|--/3--3--3--3--3--3--3--3/8--8--8--8--8--8--8--8--|
E|-----------------------------------------------| B|-----------------------------------------------| G|-----------------------------------------------| D|--0--0--0--0--0--0--0--0--0--0--0--0--0--0~~---| A|-/5--5--5--7--5--5--5--7--5--5--5--7--5--8~~---| D|--0--0--0--0--0--0--0--0--0--0--0--0--0--0~~---| E|-----------------------------------------------| B|-----------------------------------------------| G|-----------------------------------------------| D|-----------------------------------------------| A|-----------------------------------------------| D|--0--0--2--0--0--2--0--0--2--0--3--2--1--0-----| E|-----------------------------------------------| B|-----------------------------------------------| G|-----------------------------------------------| D|-----------------------------------------------| A|-----------------------------------------------| D|--0--0--2--0--0--2--0--0--2--0--2--3--6--------| Break a mirror, roll the dice Run with scissors through a chip pan fire fight Go into business with a grizzly bear But just don't sit down, cause I've moved your chair Find a well known hardman and start a fight Wear your shell suit on bonfire night Fit a circular hole with a peg that's square But just don't sit down, cause I've moved your chair (ohhhh yeah yeah yeah) (ohhhh yeah yeah yeah) Bite the lightning and tell me how it tastes Kung-fu fighting on your rollerskates Do the macarena in the devil's lair But just don't sit down, cause I've moved your chair (ohhhh yeah yeah yeah) (ohhhh yeah yeah yeah) (ohhhh yeah yeah yeah)

Arctic Monkeys
(Guitar chords, ukelele, keyboard, tabs, bass, drums and lyrics)

Este fichero es trabajo propio de su transcriptor y representa su interpretación personal de la canción. El material contenido en esta página es para exclusivo uso privado, por lo que se prohibe su reproducción o retransmisión, así como su uso para fines comerciales.



Buscar canción en YouTube Buscar cover en YouTube


Más canciones