Do I Wanna Know


IntroduçÏ£o:


E|------------------------------------------------------|
B|------------------------------------------------------|
G|------------------------------------------------------|   (5x)
D|----------------1h3-1-------------0-------------------|
A|-----1--------1--------3h5-3--1h3---3--1h3/5-3h5------|
E|-1h3---3~-1h3------------------------------------3~---|



Primeira Parte:

Have you got colour in your cheeks?
Do you ever get the fear 
That you can't shift
The type that sticks 
Around like something in your teeth?
Are there some aces up your sleeve?
Have you no idea that you're in deep?
I dreamt about you nearly 
Every night this week
How many secrets can you keep?
'Cause there's this tune I found
That makes me think of you somehow
And I play it on repeat
Until I fall asleep
Spilling drinks on my settee

(Passagem pro refrϣo)


E|------------------------------------------------------|
B|------------------------------------------------------|
G|------------------------------------------------------|
D|----------------1h3-1-------------0-------------------|
A|-----1--------1--------3h5-3--1h3---3/---5~-----------|
E|-1h3---3~-1h3-----------------------------------------|



Refrϣo:


E|------------------------------------------------------|
B|------------------------------------------------------|
G|------------------------------------------------------|
D|-----------------------------0------------------------|
A|-10--6--3-5-6-5-3--1-3--1-3----------1---------------|
E|-------------------------------3--1h3---3~------------|


E|------------------------------------------------------|
B|------------------------------------------------------|
G|------------------------------------------------------|
D|------------------------------------------------------|
A|-10--6--3-5-6-5-3--1-3-------------------------------|
E|-------------------------------3--------3~------------|


(Do I wanna know)
If this feeling flows both ways?
(Sad to see you go)
Was sort of hoping that you'd stay
(Baby, we both know)
That the nights 
Were mainly made for saying things 
That you can't say tomorrow day


E|------------------------------------------------------|
B|------------------------------------------------------|
G|------------------------------------------------------| 
D|----------------1h3-1-------------0-------------------|
A|-----1--------1--------3h5-3--1h3---3--1h3/5-3h5------|
E|-1h3---3~-1h3------------------------------------3~---|


E|------------------------------------------------------|
B|------------------------------------------------------|
G|------------------------------------------------------|
D|----------------1h3-1--------------0------------------|
A|-----1--------1--------3h5-3-1-1h3---3--1h/5-3h5------|
E|-1h3---3~-1h3------------------------------------3~---|


Crawlin' back to you
Ever thought of calling 
When you've had a few?
'Cause I always do
Maybe I'm too 
Busy being yours to fall 
For somebody new
Now I've thought it through
Crawlin' back to you


Segunda Parte:

So have you got the guts?
Been wondering if your heart's 
Still open and if so 
I wanna know what time it shuts
Simmer down and pucker up
I'm sorry to interrupt


E|------------------------------------------------------|
B|------------------------------------------------------|
G|------------------------------------------------------|   
D|----------1h3-1-------------0-------------------------|
A|--------1--------3h5-3--1h3---3--1h3/5-3h5------------|
E|-3~-1h3------------------------------------3~---------|


E|------------------------------------------------------|
B|------------------------------------------------------|
G|------------------------------------------------------|
D|----------------1h3-1-------------0-------------------|
A|-----1--------1--------3h5-3--1-3---3/---5~-----------|
E|-1h3---3~-1h3-----------------------------------------|


It's just I'm constantly on the cusp
Of trying to kiss you
But I don't know if you 
Feel the same as I do
But we could be together 
If you wanted to


Final:

(Refrϣo)

(Do I wanna know)
If this feeling flows both ways?
(Sad to see you go)
Was sort of hoping that you'd stay
(Baby, we both know)
That the nights were mainly made 
For saying things 
That you can't say tomorrow day


(Riff Principal)

Crawlin' back to you
Ever thought of calling 
When you've had a few?
'Cause I always do 
Maybe I'm too
Busy being yours to fall 
For somebody new
Now I've thought it through



E|------------------------------------------------------|
B|------------------------------------------------------|
G|------------------------------------------------------|  (2x)
D|-----------------------------0------------------------|
A|-10--6--3-5-6-5-3--1-3--1-3----------1---------------|
E|-------------------------------3--1h3---3~------------|


E|------------------------------------------------------|
B|------------------------------------------------------|
G|------------------------------------------------------|
D|-----------------------------0------------------------|
A|-10--6--3-5-6-5-3--1-3--1-3----------1---------------|
E|-------------------------------3--1h3---1~------------|


E|------------------------------------------------------|
B|------------------------------------------------------|
G|------------------------------------------------------|
D|--------------------------------------0---------------|
A|-10--6--3-5-6-5-3--1-3-----------1h3-----------------|
E|-------------------------------3--------3~------------|


Crawlin' back to you
(Do I wanna know)
If this feeling flows both ways?
(Sad to see you go)
Was sort of hoping that you'd stay
(Baby, we both know)
That the nights were mainly made 
For saying things 
That you can't say tomorrow day
(Do I wanna know)
Too busy being yours to fall?
(Sad to see you go)
Ever thought of calling, darling?
(Do I wanna know?)
Do you want me crawling back to you?


Até o F
        F        
inal: E|------------------------------------------------------| B|------------------------------------------------------| G|------------------------------------------------------| D|-----0------------------------------------------------| A|-1h3--------------------------------------------------| E|-------3----------------------------------------------|

Arctic Monkeys
(Guitar chords, ukelele, keyboard, tabs, bass, drums and lyrics)

Este fichero es trabajo propio de su transcriptor y representa su interpretación personal de la canción. El material contenido en esta página es para exclusivo uso privado, por lo que se prohibe su reproducción o retransmisión, así como su uso para fines comerciales.



Buscar canción en YouTube Buscar cover en YouTube


Más canciones