Dancing Shoes


IntroduçÏ£o:


e|--------------------------------------------------|
B|--------------------------------------------------|
G|--------------------------------------------------|
D|-----4-----------4--------------------2-2-2--4-2--| x4
A|-------6-2---------6-2---4-4-4--6-4---------------|
E|-4-4---------4-4----------------------------------|


Refrϣo:


e|------------------------------------------------------|
B|------------------------------------------------------|
G|-------6--4------------------------6--4---------------|
D|-6--4--4--4--6---------------6--4--4--4--6------------|
A|-6--4--4--2--4---------------6--4--4--2--4------------|
E|-4--2--------4-4-4--2-4------4--2--------4-4-4--4-4---|


e|------------------------------------------------------|
B|------------------------------------------------------|
G|-------6--4------------------------6--4---------------|
D|-6--4--4--4--6---------------6--4--4--4--6------------|
A|-6--4--4--2--4---------------6--4--4--2--4------------|
E|-4--2--------4-4-4--2-4------4--2--------4------------|


Verso('The lights are flashing'):


e|---------------------------------------------------------|
B|---------------------------------------------------------|
G|---------------------------------------------------------|
D|----------------------------------------2-2-2--4-2-------|  x2
A|---------------------------4-4-4--6-4--------------------|
E|-4-4-4--2-4---4-4-4--2-4---------------------------------|


e|--------------------------------------------------|
B|--------------------------------------------------|
G|--------------------------------------------------|
D|-----4-----------4--------------------2-2-2--4-2--|
A|-------6-2---------6-2---4-4-4--6-4---------------|
E|-4-4---------4-4----------------------------------|


e|---------------------------------------------------------|
B|---------------------------------------------------------|
G|---------------------------------------------------------|
D|----------------------------------------2-2-2--4-2-------|
A|---------------------------4-4-4--6-4--------------------|
E|-4-4-4--2-4---4-4-4--2-4---------------------------------|


Refrϣo('The only reason that you came'):


e|------------------------------------------------------|
B|------------------------------------------------------|
G|-------6--4------------------------6--4---------------|
D|-6--4--4--4--6---------------6--4--4--4--6------------|
A|-6--4--4--2--4---------------6--4--4--2--4------------|
E|-4--2--------4-4-4--2-4------4--2--------4-4-4--4-4---|


e|------------------------------------------------------|
B|------------------------------------------------------|
G|-------6--4------------------------6--4---------------|
D|-6--4--4--4--6---------------6--4--4--4--6------------|
A|-6--4--4--2--4---------------6--4--4--2--4------------|
E|-4--2--------4-4-4--2-4------4--2--------4------------|


Solo part

O Jamie toca isso:

e|-------------------------------------------|
B|-------------------------------------------|
G|-----------------6666666699999999----------|
D|-66666666666666666666666699999999----------| x4
A|-66666666666666664444444477777777----------|
E|-4444444444444444--------------------------|


E
        E        
 o A
        A        
lex toca o solo: e|--------------------------------------------------------==-| B|-----------------------------------------------------====--| G|-------------------------------9b---------------------=----| D|--------------------------9-------11b-9b------------11-----| A|--11--11-11--9-11-11-9-11---11-----------11-11-9h11----11--| E|-----------------------------------------------------------| e|---------------------------------------------------------| B|---------------------------------------------------------| G|-----11--------------------------------------------------| D|--14----11-14-9-11-----------9----9-11b-9----9-----------| A|--------------------11-11-11---11---------11---11--------| E|---------------------------------------------------------| e|---------------9-9-9----9----9--------------------------| B|-9-9-9----9-12-------12---12---12-9---------------------| G|-------11---------------------------11------------------| D|---------------------------------------14-11-9----------| A|--------------------------------------------------------| E|--------------------------------------------------------| e|---------------------------------------------------------| B|---------------------------------------------------------| G|---------------------------------------------------------| D|--9-11-9-11-9-11b-9-11-11b-9-11-9---------9--------------| A|----------------------------------11-9-11---11-----------| E|---------------------------------------------------------| e|--------------------------------------------------------------| B|--------------------------------------------------------------| G|--------------------------------------------------------------| D|---------------9-9-9-9--18-18-18-18--11-11-11-11--11--11-9----| A|--11-11-11-11----------------------------------------------11-| E|--------------------------------------------------------------| e|------------------------------------------------| B|------------------------------------------------| G|------------------------------------------------| x2 D|-----4----------4-------------------2-2-2--4-2--| A|-------6-2--------6-2---4-4-4--6-4--------------| E|-4-4---------4-4--------------------------------| e|---------------------------------------------------| B|---------------------------------------------------| G|------------------6-6-6-6-9-9-9-9------------------| D|--6-6-6-6-6-6-6-6-6-6-6-6-9-9-9-9------------------| x2 A|--6-6-6-6-6-6-6-6-4-4-4-4-7-7-7-7------------------| E|--4-4-4-4-4-4-4-4----------------------------------| Final: e|-----------------------------------------------------------| B|-----------------------------------------------------------| G|-----------------------------------------------------------| D|--6-6-6--4-6-----6-6-6--4-6-----6-6-6--4-6-----6-6-6--4-6--| A|--6-6-6--4-6-----6-6-6--4-6-----6-6-6--4-6-----6-6-6--4-6--| E|--4-4-4--2-4-----4-4-4--2-4-----4-4-4--2-4-----4-4-4--2-4--|

Arctic Monkeys
(Guitar chords, ukelele, keyboard, tabs, bass, drums and lyrics)

Este fichero es trabajo propio de su transcriptor y representa su interpretación personal de la canción. El material contenido en esta página es para exclusivo uso privado, por lo que se prohibe su reproducción o retransmisión, así como su uso para fines comerciales.



Buscar canción en YouTube Buscar cover en YouTube


Más canciones