Crying Lightning



G|----------------------------------------------------------------------------|
D|---------------0-3-------------3-2-------------0-5-3-2-0---0-2-3------------|
A|---------0-2-3-----------0-2-3-----------0-2-3-----------3---------0-2-3-0--|
E|---0-1-4-----------0-1-4-----------0-1-4-------------------------4----------|


E|----5----------7-----5-----8-----------|
B|--5----------------5-----8----8-9------|
G|5----------------5-----9---------------|
D|---------------------------------------|
A|---------------------------------------|
E|---------------------------------------|


E|----5-------7----5----------8----------|
B|----5------------5--------8----8-9/17--|
G|----5------------5------9--------------|
D|---------------------------------------|
A|---------------------------------------|
E|---------------------------------------|


(bridge)

E|--------------------|----------------------|
B|--------------------|----------------------|
G|--------------------|----------------------|
D|--------------------|----------------------|
A|----------7-6----x8-|---7---6-------6------|
E|5-5-5-5-8-----4-----|-8---4---5-8-7-----x4-|


(Cookies G
        G        
uitar F
        F        
or Verse 2) e |5/13--5/12--5/10--84-| |5/13--1712--5/10--84-| B|----------------------| |-----------------------| G|----------------------| |-----------------------| D|----------------------|2x|-----------------------| A|----------------------| |-----------------------| E|----------------------| |-----------------------| (Alex G
        G        
uitar F
        F        
or Verse 2) G|-------------------------------------------------------------------------| D|---------------0-3-------------3-2-------------0-5-3-2-0---0-2-3---------| A|---------0-2-3-----------0-2-3-----------0-2-3-----------3---------0-2-3-| E|---0-1-4-----------0-1-4-----------0-1-4-------------------------4-------| (refrÏ£o) ( F
        F        
Dm
       Dm       
 Am
       Am       
 ) (riff) E|------------10--------------5| B|------------10--------------5| G|---9-7------10----9-7-------5| D|10-----7-10-----10-----10-7--| A|-----------------------------| E|-----------------------------| (solo) G|-2/5/75/7---5/75/75---5/75/9--5/75----5/75/9--5/75/14--12/14129--12/14129--5/75/7--| D|----------------------7----------------7-----------------------------------------------------7-| A|-----------------------------------------------------------------------------------------------| E|-----------------------------------------------------------------------------------------------| (bridge) E|----------------| B|----------------| G|----------------| D|----------------| A|----------7-6---| E|5-5-5-5-8-----4-| (4x) D|---------------------| A|---7---6-------6-----| E|-8---4---5-8-7------3|

Arctic Monkeys
(Guitar chords, ukelele, keyboard, tabs, bass, drums and lyrics)

Este fichero es trabajo propio de su transcriptor y representa su interpretación personal de la canción. El material contenido en esta página es para exclusivo uso privado, por lo que se prohibe su reproducción o retransmisión, así como su uso para fines comerciales.



Buscar canción en YouTube Buscar cover en YouTube


Más canciones