Cigarette Smoker Fiona


Tuning: Standard
Intro:
Guitar 1


e|---------------------------------------------------------------------------|
B|---------------------------------------------------------------------------|
G|---------------------------------------------------------------------------|
D|-7-7-7---7-7-7---7-7-7---7-7-7s14------------------------------------------|
A|-7-7-7---7-7-7---7-7-7---7-7-7s14------------------------------------------|
E|-5-5-5---5-5-5---5-5-5---5-5-5s12------------------------------------------|x3


Guitar 2(after guitar 1 has played though once)

e|-----------------------------------------------------------------------------|
B|-----------------------------------------------------------------------------|
G|---5----5-7/------5-7--------------------------------------------------------|
D|-7----7--------5-7------9s7s5------------------------------------------------|
A|-----------------------------------------------------------------------------|
E|-----------------------------------------------------------------------------|x2


Verse 1

e|---------------------------------------------------------------------------|
B|---------------------------------------------------------------------------|
G|----------------------7-7-7------------------------------------------------|
D|-7-7-7--7-7-7--3-3-3--7-7-7------------------------------------------------|
A|-7-7-7--7-7-7--3-3-3--5-5-5------------------------------------------------|
E|-5-5-5--5-5-5--1-1-1-------------------------------------------------------|x4


Chorus:

Guitar 1                                          |----------------------------|
e|-----------------------------------------------------------------------------|
B|-----------------------------------------------------------------------------|
G|-----------------5-5-5-5-5-5-5-5-9-9-9-9-9-9-9-9-9-7-9-12-9-7----------------|
D|-7-7-7-7-7-7-7-7-5-5-5-5-5-5-5-5-9-9-9-9-9-9-9-9-9-7-9-12-9-7----------------|
A|-7-7-7-7-7-7-7-7-3-3-3-3-3-3-3-3-7-7-7-7-7-7-7-7-7-5-7-9--7-5----------------|
E|-5-5-5-5-5-5-5-5-------------------------------------------------------------|x2


Guitar 2

e|---------------------------------------------------------------------------|
B|---------------------------------8-----------------------------------------|
G|-----------5-5-5-7-5-9-9-9-9-7-9---9-7-------------------------------------|
D|-7-7-7-5-7-----------------------------------------------------------------|
A|---------------------------------------------------------------------------|
E|---------------------------------------------------------------------------|x2


Bridge 1:
Guitar 2

e|-----------------------------------------------------------------------------------|
B|-----------------------------------------------------------------------------------|
G|---5----5-7/------5-7--9-7-5----5----5-7/------5-7--9p7-5-7-5----------------------|
D|-7----7--------5-7-------------7----7--------5-7-----------------------------------|
A|-----------------------------------------------------------------------------------|
E|-----------------------------------------------------------------------------------|


Order:
Intro
Verse 1
Chorus (Highlighted part in G
        G        
uitar 1 only played once) Bridge 1 Verse 2 (Bass only) Chorus Bridge 2 (same as chorus only with slightly different timing) Chorus (last bar extended 4 times) | / slide up | slide down | h hammer-on | p pull-off | ~ vibrato | + harmonic | x Mute note ===============================================================================

Arctic Monkeys
(Guitar chords, ukelele, keyboard, tabs, bass, drums and lyrics)

Este fichero es trabajo propio de su transcriptor y representa su interpretación personal de la canción. El material contenido en esta página es para exclusivo uso privado, por lo que se prohibe su reproducción o retransmisión, así como su uso para fines comerciales.



Buscar canción en YouTube Buscar cover en YouTube


Más canciones