Brown Hole


Try learning this its really good!!

Intro:
G----------|
D---0-0----|
A--2-2-2---|  X4
E-3--------|
----PM-----|

Verse:
G----------|
D---0-0----|
A--2-2-2---|  X10
E-3--------|
----PM-----|

Chorus:
Intro:
G-----------------------------------------|
D-----------------------------------------|
A---------------------2222-2222-2222-2222-| X3
E-3333-3333-3333-3333---------------------|

Verse:
G----------|
D---0-0----|
A--2-2-2---|  X10
E-3--------|
----PM-----|

Arctic Monkeys
(Guitar chords, ukelele, keyboard, tabs, bass, drums and lyrics)

Este fichero es trabajo propio de su transcriptor y representa su interpretación personal de la canción. El material contenido en esta página es para exclusivo uso privado, por lo que se prohibe su reproducción o retransmisión, así como su uso para fines comerciales.



Buscar canción en YouTube Buscar cover en YouTube


Más canciones