Brick By Brick Bass


G|-------------------------|
D|-------------------------|
A|--------------5-7--------|
E|12-0-3---3-3------0-0-0-|

G|-------------------------|
D|-------------------------|
A|-----------5-(7)---------|x2
E|0--3---3-3---(0)--0-0-0--|
Notes in brackets are optional between the 2.

G|-------------------------|
D|-------------------------|
A|-------------------------|
E|0--3---3-3-3-------------|

Chorus:
G|--------------------------------------------------------|
D|--------------------------------------------------2-4-5-|
A|-----5---------------------------5----------------------|
E|3--3---2-2---3-0--0---0-0-0-3--3---2-2---3-0--0---------|

G|--------------------------------------------------------------------------|
D|--------------------------------------------------------------------------|
A|-----5---------------------------5----------------0----------0----------0-|
E|3--3---2-2---3-0--0---0-0-0-3--3---2-2---3-0--0-----3-0--0-----3-0--0-----|

G|----------------------|
D|----------------------|
A|14-13-12-11-10-9-8----|
E|----------------------|

Solo:
G|-------------------------|  |--------------------------------|
D|-------------------------|  |------------------9-------------|
A|-----------5-(7)---------|x3|---------------10---10~-8h10p8-|
E|0--3---3-3---(0)--0-0-0--|  |0--3---8h10-12------------------|

Verse:
G|-------------------------|
D|-------------------------|
A|--------------5-7--------|
E|12-0-3---3-3------0-0-0-|

G|-----------------4----------|
D|-------------4-5---5--4-5-4-|
A|-----------5----------------|
E|0--3---3-3------------------|

G|---------------------0-2-----|
D|---------------5-4-2---------|
A|-----------3-5-----------3-5-|
E|0--3---3-5-------------------|

G|-------------------------|
D|-------------------------|
A|-------------------------|
E|0--3---------------------|

Chorus:
G|--------------------------------------------------------|
D|--------------------------------------------------2-4-5-|
A|-----5---------------------------5----------------------|
E|3--3---2-2---3-0--0---0-0-0-3--3---2-2---3-0--0---------|

G|--------------------------------------------------------------------------|
D|--------------------------------------------------------------------------|
A|-----5---------------------------5----------------0----------0----------0-|
E|3--3---2-2---3-0--0---0-0-0-3--3---2-2---3-0--0-----3-0--0-----3-0--0-----|

G|----------------------|
D|----------------------|
A|14-13-12-11-10-9-8----|
E|----------------------|

Bridge:
G|-----------------------------------|
D|-----------------------------------|
A|-----------------------------------|x3
E|0---3-----3--3--3--0----0--0--0----|

G|-------------------2--0---0--2--4--|
D|----------------2------------------|
A|----------3--5---------------------|
E|0---3------------------------------|

G|-----------------------------------|
D|-----------------------------------|
A|-----------------------------------|
E|0---3-----3--3--3--0----0--0--0----|

G|-------------------2--0------------|
D|----------------2---------------2--|
A|----------3--5------------3--5-----|
E|0---3------------------------------|

G|--------------------------------|
D|---------------5--2----2--------|
A|---------3--5-------------5--3--|
E|0---3---------------------------|

G|-----------------------------------|
D|-----------------------------------|
A|-----------------------------------|
E|3---0----3-------------------------|

Chorus
G|--------------------------------------------------------|
D|--------------------------------------------------2-4-5-|
A|-----5---------------------------5----------------------|x3
E|3--3---2-2---3-0--0---0-0-0-3--3---2-2---3-0--0---------|

G|--------------------------------------------------------------------------|
D|--------------------------------------------------------------------------|
A|-----5---------------------------5----------------0----------0----------0-|
E|3--3---2-2---3-0--0---0-0-0-3--3---2-2---3-0--0-----3-0--0-----3-0--0-----|

G|----------------------|
D|----------------------|
A|14-13-12-11-10-9-8----|
E|----------------------|

G|---------------------------|
D|---------------------------|
A|---------------------------|
E|0---3~---------------------|

Arctic Monkeys
(Guitar chords, ukelele, keyboard, tabs, bass, drums and lyrics)

Este fichero es trabajo propio de su transcriptor y representa su interpretación personal de la canción. El material contenido en esta página es para exclusivo uso privado, por lo que se prohibe su reproducción o retransmisión, así como su uso para fines comerciales.



Buscar canción en YouTube Buscar cover en YouTube


Más canciones