Brianstorm


(4 compassos iniciais sem tocar)

Intro:

(Parte 1)


E|x-x-x-x--x-x-x-x--x-x-x-x--x-x-x-x-----------------
B|x-x-x-x--x-x-x-x--x-x-x-x--x-x-x-x-----------------
G|x-x-x-x--x-x-x-x--x-x-x-x--x-x-x-x-----------------  (4x)
D|x-x-x-x--x-x-x-x--x-x-x-x--x-x-x-x-----------------
A|---------------------------------------------------
E|---------------------------------------------------


(Parte 2)

E|---------------------------------------------------
B|---------------------------------------------------
G|---------------------------------------------------  (8x)
D|---------------------------------------------------
A|8-8-8-8-8-8-----8-8-8-8-8-8-8-8--------------------
E|------------9-9------------------------------------



Riff 1:


E|---------------------------------------------------
B|---------------------------------------------------
G|---------------------------------------------------
D|---------------------------------------------------
A|8-8-8-8-8-8---------------------4-4-4-4-6-6-6-6----
E|------------9-9-8-8-8-8-8-8-4-4--------------------


E|---------------------------------------------------
B|---------------------------------------------------
G|---------------------------------------------------
D|---------------------------------------------------
A|7-7-7-7/-10-10-10-10-------------------------------
E|---------------------------------------------------



VariaçÏ£o do Riff 1:


E|---------------------------------------------------
B|---------------------------------------------------
G|---------------------------------------------------  (4x)
D|---------------------------------------------------
A|8-----------------4--4--6--7--x--10----------------
E|---x--9--8--x--------------------------------------


(Contrabaixo)

Brian
Top marks for not tryin'

VariaçÏ£o do Riff 1 - Oitavas:


E|---------------------------------------------------
B|---------------------------------------------------
G|10-------------------6--6--8--9-----12-------------  (4x)
D|-------11--10--------------------------------------
A|8--------------------4--4--6--7--x--10-------------
E|----x--9---8---x-----------------------------------


So kind of you to bless us with your effortlessness
We're grateful and so strangely comforted

Riff 2 (acompanha o riff em oitavas):


E|---------------------------------------------------
B|---------------------------------------------------
G|10---10---10---10---10---10------------------------
D|---------------------------------------------------
A|8----8----8----8----8----8-------------------------
E|---------------------------------------------------


And I wonder
Are you puttin' us under?
'Cos we can't take our eyes
Off the t-shirt and ties combination
Well, see you later, innovator!

(Contrabaixo)

(IntroduçÏ£o - Parte 1)

Some want to kiss, some want to kick you

(Riff 1)

There's not a net you couldn't slip through
Or at least that's the impression I get
'Cos you're smooth and you're wet
And she's not aware yet, but she's yours

Riff 3 (acompanha o Riff 1):


E|---------------------------------------------------
B|6/18--18--18--18--18--18--18--18--18--18--186-----
G|---------------------------------------------------  (4x)
D|3/15--15--15--15--15--15--15--15--15--15--153-----
A|---------------------------------------------------
E|---------------------------------------------------


She'll be sayin' "Use me"
Show me the jacuzzi
I imagine that it's there on a plate
You're whole rendezvous rate
Means that you'll never be frightened
To make 'em wait for a while

Riff 4:


E|---------------------------------------------------
B|---------------------------------------------------
G|---------------------------------------------------
D|---------------------------------------------------
A|3---------------3--3--------4----------------------
E|---x--4--1--x---------4--1-------------------------


E|---------------------------------------------------
B|---------------------------------------------------
G|5--5--5--5--5--5--5--5--5--5--5--5--5--5--5--5-----
D|---------------------------------------------------
A|3--3--3--3--3--3--3--3--3--3--3--3--3--3--3--3-----
E|---------------------------------------------------


E|---------------------------------------------------
B|---------------------------------------------------
G|9--9--9--9--9--9--9--9--9--9--9--9--9--9--9--9-----
D|---------------------------------------------------
A|7--7--7--7--7--7--7--7--7--7--7--7--7--7--7--7-----
E|---------------------------------------------------


I doubt it's your style
Not to get what you set
Out to acquire
The odds are on fire
You are the unforecasted storm

(Riff - C
        C        
ontrabaixo) Riff 5: E|--------------------------------------------------- B|--------------------------------------------------- G|10--10--10--10--10--10/11-------------------------- (2x) D|--------------------------------------------------- A|8---8---8---8---8---8-/9--------------------------- E|--------------------------------------------------- (Riff - C
        C        
ontrabaixo) E|--------------------------------------------------- B|--------------------------------------------------- G|10--10--10--10--10--10/11-------------------------- (9x) D|--------------------------------------------------- A|8---8---8---8---8---8-/9--------------------------- E|--------------------------------------------------- E|--------------------------------------------------- B|--------------------------------------------------- G|10--10--10--10------------------------------------- D|--------------------------------------------------- A|8---8---8---8-------------------------------------- E|--------------------------------------------------- Calm, C
        C        
ollected and C
        C        
ommanding (Top marks for not tryin') You leave the other story standing With your renditions and jokes Bet there's hundreds of blokes That have wept 'cos you've stolen their... (VariaçÏ£o do Riff 1 em Oitavas + Riff 3) Thunder Are you putting us under 'Cos we can't take our eyes Off the t-shirt and ties combination Well, see you later, innovator! (Pausa) (IntroduçÏ£o - Parte 2)

Arctic Monkeys
(Guitar chords, ukelele, keyboard, tabs, bass, drums and lyrics)

Este fichero es trabajo propio de su transcriptor y representa su interpretación personal de la canción. El material contenido en esta página es para exclusivo uso privado, por lo que se prohibe su reproducción o retransmisión, así como su uso para fines comerciales.



Buscar canción en YouTube Buscar cover en YouTube


Más canciones