Bigger Boys And Stolen Sweethearts Solo


Guitar 1


e---------------------------|
B---------------------------|
G---------------------------|
D---------5-5-2-------------|
A-0---3---------------------|
E-----------------2-2-1-111-|

= Repeat

Guitar 2 (Lead solo bit)

(All of this is played extremely fast!)


e-----------------------------------------------------------------------|
B-----------------------------------------------------------------------|
G-----------------------------------------------------------------------|
D-----------------------------------------------------------------------|
A---0-2-3-5b-5-5b-5-5b-3-0---3-5-5b-5-3-0-5-3-5-7-5-3-5-3535-77777-5-3-0|
E-2---------------------------------------------------------------------|


(There wasnt enough space, so on this line the solo just continues)


e----------------------------------------------------------|
B----------------------------------------------------------|
G----------------------------------------------------------|
D-----------5---5-7-5--------------------------------------|
A-3-0-3-5-7---7-------7-5-3-0-303-5-7-5-3-53---5---3-7-5-0-|
E--------------------------------------------3---3---------|


(Or somthing like that, i'm not sure it's exactly right)

By iggy. = )

Arctic Monkeys
(Guitar chords, ukelele, keyboard, tabs, bass, drums and lyrics)

Este fichero es trabajo propio de su transcriptor y representa su interpretación personal de la canción. El material contenido en esta página es para exclusivo uso privado, por lo que se prohibe su reproducción o retransmisión, así como su uso para fines comerciales.



Buscar canción en YouTube Buscar cover en YouTube


Más canciones