Arabella


Intro:

          P.M.----------

E|---------------5-------|
B|---------5-7-8---8-7-5-|
G|-/14~------------------| x2
D|-----------------------|
A|-----------------------|
E|-----------------------|


Verso:

    P.M.----------

E|---------5-------|
B|---5-7-8---8-7-5-|
G|-----------------| x2
D|-----------------|
A|-----------------|
E|-----------------|


Pre-Chorus:


E|-------------|-------|
B|-------------|-------|
G|-7-9---------|---7-9-|
D|-7-9---7---5-|x3-7-9-|
A|-5-7---7---5-|---5-7-|
E|-------5---3-|-------|


Chorus:


E|-----------------------------------|
B|-----------------------------------|
G|-7-9--12--7-9-14--7-9-12--12-9--16-|
D|-7-9--12--7-9-14--7-9-12--12-9--16-|
A|-5-7--10--5-7-12--5-7-10--10-7--14-|
E|-----------------------------------|


( Em
       Em       
 ) verso: (toca continuamente A
        A        
|-7- muted) Pre-Chorus Chorus (acordes) E|--------------------------------------------------| B|--------------------------------------------------| G|-245--555--222--999--121212--555--222--555--77-88-| D|-245--555--222--999--121212--555--222--555--77-88-| A|-023--333--000--777--101010--333--000--333--55-66-| E|--------------------------------------------------| E|---------------------------------------------------------------------------| B|---------------------------------------------------------------------------| G|-14b16b14p12---x7-12/14/12------12h14b16-14-13h14p12--------------12h14b16-| D|------------14-------------12h14---------------------14------12h14---------| A|--------------------------------------------------------12h14--------------| E|---------------------------------------------------------------------------| ------------------------| --------18--------------| 14-14b16--14b16b14~-12--| ----------------------14| ------------------------| ------------------------| Chorus: Termina com E|-----| B|-----| G|-7-9-| D|-7-9-| A|-5-7-| E|-----|

Arctic Monkeys
(Guitar chords, ukelele, keyboard, tabs, bass, drums and lyrics)

Este fichero es trabajo propio de su transcriptor y representa su interpretación personal de la canción. El material contenido en esta página es para exclusivo uso privado, por lo que se prohibe su reproducción o retransmisión, así como su uso para fines comerciales.



Buscar canción en YouTube Buscar cover en YouTube


Más canciones