A Certain Romance


Intro:

E|---------|
B|---------|
G|---7--9--|   (16x)
D|-9-------|
A|---------|
E|---------|


E|---------|
B|---------|
G|---------|   (8x)
D|--9-9-9--|
A|--9-9-9--|
E|--7-7-7--|


Parte 1 - 2x:

E|--------------------14-14-14---------------16-16-16---------------18-18-18-18-18-15-12--|
B|--16-16---16-16-16-----------16---16-16-16----------16---16-16-16-----------------------|
G|----------------------------------------------------------------------------------------|
D|----------------------------------------------------------------------------------------|
A|----------------------------------------------------------------------------------------|
E|----------------------------------------------------------------------------------------|


E|--7--7-7-7-9-7---9-7---7--7-7-7---------------------------------------------------------|
B|---------------9-----9----------8-8-8-8-------------------------------------------------|
G|----------------------------------------------------------------------------------------|
D|----------------------------------------------------------------------------------------|
A|----------------------------------------------------------------------------------------|
E|----------------------------------------------------------------------------------------|


Verso:

E|---11--------|
B|---12--------|
G|---11--------|   (16x)
D|-------------|
A|-------------|
E|-------------|


E|---7---------|
B|---9---------|
G|---9---------|   (16x)
D|-------------|
A|-------------|
E|-------------|

	"You Know..."

E|-------------------------------------------------------------|
B|--9--9-7------9-7-----9-7-----9-7----------------------------|
G|---------8--6-----8-------8-------8-------6-8----9-5-6-------|
D|--------------------9-------9----------9-------6--------4----|
A|-------------------------------------------------------------|
E|-------------------------------------------------------------|


( Ab
       Ab       
  Gb
       Gb       
  E
        E        
) (2x) Solo: (Guitarra B
        B        
ase) E|---7-----7-7-7-7-7------------7------| B|---9---------------9-9--------8------| G|---9-------------------9------9------| D|-------------------------------------| A|-------------------------------------| E|-------------------------------------| E|---11--------| B|---12--------| G|---11--------| (16x) D|-------------| A|-------------| E|-------------| E|---7--7------| B|---9--8------| G|---9--9------| (16x) D|-------------| A|-------------| E|-------------| B
        B        
Ab
       Ab       
  G
        G        
) E|----------------------------------------------------| B|----------------------------------------------------| G|---------------------------------8-----8--6--4------| (2x) D|--9-8-9--9/11-9-8-9---8-9-9/11-9---6-----------6--5-| A|----------------------------------------------------| E|----------------------------------------------------| E|---------------------------------------| B|--9-9-7-7--------9-9-9-7-7-------------| G|----------8-8-8-------------8-8-8-8----| (2x) D|---------------------------------------| A|---------------------------------------| E|---------------------------------------| E|---------------------------------------| B|--9-9-7-7-------------7-7--------------| G|----------8-8-6-6-8-8------8-8-6-6-4---| D|---------------------------------------| A|---------------------------------------| E|---------------------------------------|

Arctic Monkeys
(Guitar chords, ukelele, keyboard, tabs, bass, drums and lyrics)

Este fichero es trabajo propio de su transcriptor y representa su interpretación personal de la canción. El material contenido en esta página es para exclusivo uso privado, por lo que se prohibe su reproducción o retransmisión, así como su uso para fines comerciales.



Buscar canción en YouTube Buscar cover en YouTube


Más canciones