Suerte (BAJ) (2)


Me suena bien, cualquier cosa elib0_eoy 
 
 
 
F#||---------------------------|------------------------| 
C#||--------0-0---2-2----------|--------0-0---2-2-------| 
G#||---------------------3-3-2-|------------------------| 
D#||--3-3----------------------|--3-3-------------------| 
 
 
 
---------------------------|------------------------| 
--------0-0---2-2----------|--------0-0---2-2-------| 
---------------------3-3-2-|------------------------| 
--3-3----------------------|--3-3-------------------| 
 
 
 
---------------------------|---------------------------| 
--------0-0---2-2----------|--------0-0---2-2----------| 
---------------------3-3-2-|---------------------3-3-2-| 
--3-3----------------------|--3-3----------------------| 
 
 
 
---------------------------|--------------|---------------------------| 
--------0-0---2-2----------|--1--1--1--1--|--------0-0---2-2----------| 
---------------------3-3-2-|--------------|---------------------3-3-2-| 
--3-3----------------------|--------------|--3-3----------------------| 
 
 
 
---------------------------|---------------------------|--------------| 
--------0-0---2-2----------|--------0-0---2-2----------|--1--1--1--1--| 
---------------------3-3-2-|---------------------3-3-2-|--------------| 
--3-3----------------------|--3-3----------------------|--------------| 
 
 
 
------------------------------|------------------------------| 
-------------0------2---------|-------------0------2---------| 
---------------------------3--|---------------------------3--| 
--3-3-3--3-3----3-3----3-3----|--3-3-3--3-3----3-3----3-3----| 
 
 
 
---------------------------|---------------------------| 
--------0-0---2-2----------|--------0-0---2-2----------| 
---------------------3-3-2-|---------------------3-3-2-| 
--3-3----------------------|--3-3----------------------| 
 
 
 
---------------------------|--------------|---------------------------| 
--------0-0---2-2----------|--1--1--1--1--|--------0-0---2-2----------| 
---------------------3-3-2-|--------------|---------------------3-3-2-| 
--3-3----------------------|--------------|--3-3----------------------| 
 
 
 
---------------------------|---------------------------| 
--------0-0---2-2----------|--------0-0---2-2----------| 
---------------------3-3-2-|---------------------3-3-2-| 
--3-3----------------------|--3-3----------------------| 
 
 
 
----------------------------------|----------------------------------| 
--1-1-1-1-1-1-1-1-1-1-1-1-1-1-1-1-|----------------------------------| 
----------------------------------|------------------2-2-2-2-2-2-2-2-| 
----------------------------------|--3-3-3-3-3-3-3-3-----------------| 
 
 
 
----------------------------------|----------------------------------| 
----------------------------------|----------------------------------| 
--3-3-3-3-3-3-3-3-----------------|------------------2-2-2-2-2-2-2-2-| 
------------------3-3-3-3-2-2-2-2-|--0-0-0-0-0-0-0-0-----------------| 
 
 
 
----------------------------------|--2-2-2-2-2-2-2-2-----------------| 
----------------------------------|----------------------------------| 
--3-3-3-3-3-3-3-3-----------------|------------------5-5-5-5-5-5-5-5-| 
------------------3-3-3-3-3-3-3-3-|----------------------------------| 
 
 
 
---------------------------|------------------------| 
--------0-0---2-2----------|--------0-0---2-2-------| 
---------------------3-3-2-|------------------------| 
--3-3----------------------|--3-3-------------------| 
 
 
 
---------------------------|------------------------| 
--------0-0---2-2----------|--------0-0---2-2-------| 
---------------------3-3-2-|------------------------| 
--3-3----------------------|--3-3-------------------| 
 
 
 
---------------------------|---------------------------| 
--------0-0---2-2----------|--------0-0---2-2----------| 
---------------------3-3-2-|---------------------3-3-2-| 
--3-3----------------------|--3-3----------------------| 
 
 
 
---------------------------|--------------|---------------------------| 
--------0-0---2-2----------|--1--1--1--1--|--------0-0---2-2----------| 
---------------------3-3-2-|--------------|---------------------3-3-2-| 
--3-3----------------------|--------------|--3-3----------------------| 
 
 
 
---------------------------|---------------------------| 
--------0-0---2-2----------|--------0-0---2-2----------| 
---------------------3-3-2-|---------------------3-3-2-| 
--3-3----------------------|--3-3----------------------| 
 
 
 
----------------------------------|----------------------------------| 
--1-1-1-1-1-1-1-1-1-1-1-1-1-1-1-1-|----------------------------------| 
----------------------------------|------------------2-2-2-2-2-2-2-2-| 
----------------------------------|--3-3-3-3-3-3-3-3-----------------| 
 
 
 
----------------------------------|----------------------------------| 
----------------------------------|----------------------------------| 
--3-3-3-3-3-3-3-3-----------------|------------------2-2-2-2-2-2-2-2-| 
------------------3-3-3-3-2-2-2-2-|--0-0-0-0-0-0-0-0-----------------| 
 
 
 
----------------------------------|----------------------------------| 
----------------------------------|----------------------------------| 
--3-3-3-3-3-3-3-3-----------------|------------------2-2-2-2-2-2-2-2-| 
------------------3-3-3-3-3-3-3-3-|--3-3-3-3-3-3-3-3-----------------| 
 
 
 
----------------------------------|--2-2-2-2-2-2-2-2-----------------| 
----------------------------------|----------------------------------| 
--3-3-3-3-3-3-3-3-----------------|------------------5-5-5-5-5-5-5-5-| 
------------------3-3-3-3-2-2-2-2-|----------------------------------| 
 
 
 
-------------------|------------------|------------------|------------------| 
-------------------|------------------|------------------|------------------| 
-------------------|------------------|------------------|------------------| 
--3----------------|------------------|------------------|------------------| 
 
 
 
------------------|------------------|------------------| 
------------------|------------------|------------------| 
------------------|------------------|------------------| 
------------------|------------------|------------------| 
 
 
 
----------------------------------|----------------------------------| 
----------------------------------|----------------------------------| 
------------------2-2-2-2-2-2-2-2-|--3-3-3-3-3-3-3-3-----------------| 
--3-3-3-3-3-3-3-3-----------------|------------------3-3-3-3-2-2-2-2-| 
 
 
 
----------------------------------|----------------------------------| 
----------------------------------|----------------------------------| 
------------------2-2-2-2-2-2-2-2-|--3-3-3-3-3-3-3-3-----------------| 
--0-0-0-0-0-0-0-0-----------------|------------------3-3-3-3-3-3-3-3-| 
 
 
 
----------------------------------|----------------------------------| 
----------------------------------|----------------------------------| 
------------------2-2-2-2-2-2-2-2-|--3-3-3-3-3-3-3-3-----------------| 
--3-3-3-3-3-3-3-3-----------------|------------------3-3-3-3-2-2-2-2-| 
 
 
 
--2-2-2-2-2-2-2-2---------------------|---------------------------| 
--------------------------------------|--------0-0---2-2----------| 
------------------5-5-5-5-5-5-5-5-----|---------------------3-3-2-| 
--------------------------------------|--3-3----------------------| 
 
 
 
---------------------------|---------------------------| 
--------0-0---2-2----------|--------0-0---2-2----------| 
---------------------3-3-2-|---------------------3-3-2-| 
--3-3----------------------|--3-3----------------------| 
 
 
 
------------------------|| 
------------------------|| 
--------5-5---7/-3------|| 
--3-3-------------------|| 
 
 
 
Un saludo a mi gordita :)

 A
        A        
rbol

Este fichero es trabajo propio de su transcriptor y representa su interpretación personal de la canción. El material contenido en esta página es para exclusivo uso privado, por lo que se prohibe su reproducción o retransmisión, así como su uso para fines comerciales.