Pirulero (BAJ) (2)


a prulin de caramelo...
g|------------------|
d|------------------|
a|-9-8-6-4---7-8----|
e|---------7-----9--|

g|------------------|
d|------------------|
a|-9-8-6-4---7-8--78|
e|---------7-----9--|

g||---------------------------|
d||---------------------------|
a||-9---6---------------------|
e||---9---6/9-76--------------|

es toda la cancion igual

para consultas o qejas o correcicones bahiado.no

no se si esta eprfecta pero bueh...

 A
        A        
rbol

Este fichero es trabajo propio de su transcriptor y representa su interpretación personal de la canción. El material contenido en esta página es para exclusivo uso privado, por lo que se prohibe su reproducción o retransmisión, así como su uso para fines comerciales.