Pequeños sueños (TAB) (4)


les dejo el punteo q saque yo .....taba al pedazo....!!!!!





1|--7---7--9--7---7--9--7---7--9--7----------------
2|----------------------------------10--9--7--9----
3|----------------------------------------------9--
4|-------------------------------------------------
5|-------------------------------------------------
6|-------------------------------------------------


1|---------------------------------7---------------
2|-9---9--10--9---9--10--9---9--10---10--9--7--9---
3|-----------------------------------------------9-
4|-------------------------------------------------
5|-------------------------------------------------
6|-------------------------------------------------


1|--7---7--9--7---7--9--7---7--9--7----------------
2|----------------------------------10--9--7--9----
3|----------------------------------------------9--
4|-------------------------------------------------
5|-------------------------------------------------
6|-------------------------------------------------


1|----------------------------------------
2|---------9--9--9--7--7--5--7s-9--5brbr--
3|-9--9-9---------------------------------
4|----------------------------------------
5|----------------------------------------
6|----------------------------------------


1|---------------7-----------------
2|--9-----7--10---------7-10-9-7---
3|------------------9------------9-
4|---------------------------------
5|---------------------------------
6|---------------------------------




bueno.....




AGUANTE
        E        
 "GRITO D
        D        
G
        G        
UERRA"

 A
        A        
rbol

Este fichero es trabajo propio de su transcriptor y representa su interpretación personal de la canción. El material contenido en esta página es para exclusivo uso privado, por lo que se prohibe su reproducción o retransmisión, así como su uso para fines comerciales.