Mariposas (TAB) (2)


Solo del tema: 
 
|-9-10-12-10-9-10-12-10--------------------------------| 
|------------------------10-12-14-12-14-10-12-14-12-14-| 
|------------------------------------------------------| 
|------------------------------------------------------| 
|------------------------------------------------------| 
|------------------------------------------------------| 
 
|---------------------------------------------| 
|--7-9-10-9-7-9-10-9--7-7-7-------------------| 
|----------------------------9-9-9-7-7-7------| 
|---------------------------------------------| 
|---------------------------------------------| 
|---------------------------------------------| 
 
|-9-10-12-10-9-10-12-------------------------10-12-14-16-17-| 
|--------------------10-12-14-12-10-12-14-12----------------| 
|-----------------------------------------------------------| 
|-----------------------------------------------------------| 
|-----------------------------------------------------------| 
|-----------------------------------------------------------| 
 
|--17--------17-17----17-----------------------------| 
|-----15-14--------15---12-10--10-12-14-12-14-10-12--| 
|----------------------------------------------------| 
|----------------------------------------------------| 
|----------------------------------------------------| 
|----------------------------------------------------| 
 
 
Bueno cualquier cosa, una_maza 
Chau! guau!

 A
        A        
rbol

Este fichero es trabajo propio de su transcriptor y representa su interpretación personal de la canción. El material contenido en esta página es para exclusivo uso privado, por lo que se prohibe su reproducción o retransmisión, así como su uso para fines comerciales.