Enes (BAJ) (3)


Nota: las notas entre () son bastante dificiles de escuchar, sino las escuchan no importa. 
 
(el bajo empieza despues del 1er riff de guitarra) 
G-------------- 
D-22-2-2-(2)--- 
A-------------- 
E--------------(x4) 
 
Verso 'Como vos...' 
 
G-------------- 
D-22-2-2-(2)--- 
A-------------- 
E--------------(x8) 
 
Riff intervalo 
 
G-----------1-2----------------------------- 
D---------2-----2--(2)---------------------- 
A-0-2-4-5-------------0-2-4-5-4-2-4-2-0-0--- 
E------------------------------------------- 
 
G-----------1-2h4-2----------------------2-- 
D---------2--------(2)-----------------2---- 
A-0-2-4-5-------------0-2-4-5-4-2-44-2------ 
E------------------------------------------- 
 
Verso 'Tiene tos...' 
 
G---2----2---2--2---2---2-------2---- 
D-2--------2------2-------2-(2)------ 
A-----4---------------4-------------- 
E------------------------------------(x2) 
 
'Digo yo...' 
 
G---2----2---2--2---2---2-------2----- 
D-2--------2------2-------2-(2)---(2)- 
A-----4---------------4--------------- 
E-------------------------------------(x2) 
 
'No me acuerdo...' (escuchar bien) 
 
G-------------------------------------------- 
D-------------------------------------------- 
A-0---0-00---4-5-6-7--0-(00)-0-(5)-0-(7)-00-- 
E-------------------------------------------- 
 
'Mi papa, mi mama...' 
 
G------------------------------------------------ 
D------------------------------------------------ 
A-00-0------44-4-55-5-77-7-99-9-11|11-11-12-12s0- 
E------77-7--------------------------------------(x2) 
 
'No me acuerdo bien...' (acompañando al bombo, pueden no hacerlo) 
 
G------------- 
D------------- 
A----(77)----- 
E-------------(x7) 
 
G---------------- 
D---------------- 
A-00-0-00-0-00-3- 
E----------------(x4) 
 
'Mi papa, mi mama...' 
 
G------------------------------------------4-6-- 
D--------------------------4444-6666-77777------ 
A-0000------4444-5555-7777---------------------- 
E------7777------------------------------------- 
 
'Como un dios...' 
 
G-----------------------------------4----------- 
D--------------------------4444-6-7---6-7------- 
A-0000------4444-5555-7777---------------------- 
E------7777------------------------------------- 
 
Estribillo 'Enes, son enes...' 
 
G---------------- 
D---------------- 
A-00-0-00-0-00-3- 
E----------------(x5) 
 
G--------------------- 
D--------------------- 
A-0-3-0-3-0-3-0-33-0-- 
E--------------------- 
 
Intervalo con violin (fijarse los tiempos) 
 
G----------(7)---9-------(99)------------------------ 
D------7-----------9------------------------(5)--(7)- 
A--------7--5-55-----7-77----7-5-55-5-55555----5----- 
E-0-00----------------------------------------------- 
 
G---------------- 
D---------------- 
A-00-0-00-0-00-3- 
E----------------(x4) 
 
Estribillo 'Enes, son enes...' 
 
G---------------- 
D---------------- 
A-00-0-00-0-00-3- 
E----------------(x5) 
 
G------------------ 
D------------------ 
A-0-3-0-3-0-3-0-3-- 
E------------------ 
 
Nota: E
        E        
n la parte del estribillo a veces suena esto, si quieren pruebenlo...por eso lo pongo aca abajo. G------------------ D-----(1)---(1)---- A-00-0---0-0---0-3- E------------------(x5)

 A
        A        
rbol

Este fichero es trabajo propio de su transcriptor y representa su interpretación personal de la canción. El material contenido en esta página es para exclusivo uso privado, por lo que se prohibe su reproducción o retransmisión, así como su uso para fines comerciales.