El fantasma (TAB) (6)


Buenas... aca les dejo los solos... son re facile, y les tienen
qe salir.. bueno les dejo los punteos del pianito y el de la
guitarra

SOLO 1,1:29(es el pianito):
e|-10-7-8-10----8-7-8---5-7-8---7-5-7---3-5-7---3-5-7---3-5-7---5-7-8-
B|--------------------------------------------------------------------
G|--------------------------------------------------------------------
D|--------------------------------------------------------------------
A|--------------------------------------------------------------------
E|--------------------------------------------------------------------

e|7-8-10--8-10-11--10-8-7-8-7-|
B|----------------------------|
G|----------------------------|
D|----------------------------|
A|----------------------------|
E|----------------------------|

SOLO 2:39 (segundo solo con el pianito):
e|-13-10-11-13--11-10-11-8-10-11--10-8-10-6-8-10-6-8-10-6-8-10-8-10-11-
B|---------------------------------------------------------------------
G|---------------------------------------------------------------------
D|---------------------------------------------------------------------
A|---------------------------------------------------------------------
E|---------------------------------------------------------------------

e|10-11-13-11-13-15-13-11-13-11-10-8-6-|
B|-------------------------------------|
G|-------------------------------------|
D|-------------------------------------|
A|-------------------------------------|
E|-------------------------------------|

SOLO 2,3:06(GUITARRA)

e|-----------------3-1----3-1---3-1---3-1-------------------------3-1-
B|----------------------------------------4-3-4-3---------------------
G|-3-3-3-3-3-3-3-3------3-----3-----3-------------3-3-3-3-3-3-3-3-----
D|--------------------------------------------------------------------
A|--------------------------------------------------------------------
E|--------------------------------------------------------------------

e|-----3-1---3-1---3-1---------|
B|---------------------4-3-4-3-|
G|---3-----3-----3-------------| X2
D|-----------------------------|
A|-----------------------------|
E|-----------------------------|

ESTO LO HACE E
        E        
L PIANITO C
        C        
UANDO
       DO       
 SE
        E        
 HACE
        E        
 POR SEGUNDA
        A        
 VES E
        E        
SOL
       SOL       
O 2: e|------------------------11-10-----11-10----11-10----11-10--8-6-8-6-6-| B|11-11-11-11-11-11-11-11--------11-------11-------11------------------| G|---------------------------------------------------------------------|X2 D|---------------------------------------------------------------------| A|---------------------------------------------------------------------| E|---------------------------------------------------------------------| ESTE E
        E        
E
        E        
F
        F        
INAL: e|----------------------------------| B|---6---6---6----6---4---4---4---4-| G|-2---2---2---2----2---2---2---2---|X2 D|----------------------------------| A|----------------------------------| E|----------------------------------| bueno si qieren pedir algun tema mandenme un msj a fede22_81.SUERT

 A
        A        
rbol

Este fichero es trabajo propio de su transcriptor y representa su interpretación personal de la canción. El material contenido en esta página es para exclusivo uso privado, por lo que se prohibe su reproducción o retransmisión, así como su uso para fines comerciales.