El fantasma (BAJ) (4)


intro 
G|----------------------------------|----------------------------------| 
D|----------------------------------|----------------------------------| 
A|-----------------2-------3--------|-----------------2-------3--------| 
E|-3-------5------------------------|-3-------5------------------------| 
 
primeros versos 
G|----------------------------------|----------------------------------| 
D|----------------------------------|----------------------------------| 
A|-----------------2---2---3---3----|-----------------2---2---3---3----| 
E|-3---3---5---5--------------------|-3---3---5---5--------------------| 
 
estribillo 
G|----------------------------------|----------------------------------| 
D|----------------------------------|----------------------------------| 
A|-----------------2222222233333333-|-----------------2222222233333333-| 
E|-3333333355555555-----------------|-3333333355555555-----------------| 
 
(ahora los versos siguen como el estribillo) 
 
en el 1º solo de acordeon no hay bajo, el 2º es asi: 
G|----------------------------------|----------------------------------| 
D|----------------------------------|----------------------------------| 
A|----------------------------------|-----------------6666666666666666-| 
E|-66666666666666665555555555555555-|-3333333333333333-----------------| 
 
ahora y hasta el final, sigue todo el tiempo asi: 
G|----------------------------------|----------------------------------| 
D|----------------------------------|----------------------------------| 
A|-------------------------66666666-|-------------------------66666666-| 
E|-666666665555555533333333---------|-666666665555555533333333---------| 
 
(al final hay un punteo muy corto donde no hay bajo) 
 
 
NOTA: en algunas partes cuando termina el estribillo o algun verso hay cortes

 A
        A        
rbol

Este fichero es trabajo propio de su transcriptor y representa su interpretación personal de la canción. El material contenido en esta página es para exclusivo uso privado, por lo que se prohibe su reproducción o retransmisión, así como su uso para fines comerciales.