Devuélveme la vida (TAB) (4)


Ahí os va la parte del solo de la canción, incluida la intro: 
 
 
 
Intro 
 
e|-------10--8---7---------------10--8--7-----7---| 
B|----8------------10--8-------------------10-----| 
G|--7----------------------7----------------------| 
D|------------------------------------------------| 
A|------------------------------------------------| 
E|------------------------------------------------| 
 
e|-------10--8---7--------7-----------------------| 
B|----8------------10--10----8--7--8--7-----------| 
G|--7-------------------------------------7-------| 
D|------------------------------------------------| 
A|------------------------------------------------| 
E|------------------------------------------------| 
 
 
 
 
[2:34] 
 
e|-----------------------------|----------7--10--7----7----------7---| 
B|--7--8--10-7--7-------------7|--7-8--10----------10---10--7-8----10| 
G|-----------------9---7--7----|-------------------------------------| 
D|-----------------------------|-------------------------------------| 
A|-----------------------------|-------------------------------------| 
E|-----------------------------|-------------------------------------| 
		           
e|----------------------5/7----|-------------------------------------| 
B|------------------7-8------10|------------7------------------------| 
G|-6--7--6---6-7-9-------------|--------7-9----9--7------7-----------| 
D|---------7-------------------|-7-7-9----------------9-----9/7---9--| 
A|-----------------------------|-------------------------------------| 
E|-----------------------------|-------------------------------------| 
 
e|--5/7----10-7H10P7-----------|-10--9---5/7P5-----------------------| 
B|--------------------10--7--9-|----------------7---5--------5-5-----| 
G|-----------------------------|-----------------------4--6----------| 
D|-----------------------------|-------------------------------------| 
A|-----------------------------|-------------------------------------| 
E|-----------------------------|-------------------------------------| 
 
e|-----------------------------| 
B|--7--5------------------3----| 
G|---------7--4--7--2--4-------| 
D|-----------------------------| 
A|-----------------------------| 
E|-----------------------------| 
 
			     [3:00] 
 
H=Hammer-on 
P=Pull-off 
/=Slide

 A
        A        
ntonio Orozco

Este fichero es trabajo propio de su transcriptor y representa su interpretación personal de la canción. El material contenido en esta página es para exclusivo uso privado, por lo que se prohibe su reproducción o retransmisión, así como su uso para fines comerciales.