La Bella María (BAJ)


Intro
E|--------------|-----------|
A|----3-6-5-----|-6----6-5--|
D|--5-------5/7-|--8--8-----|
G|--------------|---8-------|

Si deseo sonreir
E|---------|------|-------|------|-------|------|--------|
A|---------|------|-------|----3-|-3-5-6-|--6-5-|-5-6-5--|
D|-----5-3-|--3-5-|-5-3-1-|---3--|-------|------|--------|
G|--5-5----|-5----|-------|-3----|-------|-3----|--------|

En la isla
E|--------|-----|-----|-----|-----|-----|--------|
A|--------|-----|-----|---3-|-----|---6-|--6-66--|
D|-----53-|--3--|-3-1-|--3--|-5-5-|--5--|-8------|
G|--5-5---|-5-3-|--3--|-3---|--5--|-7---|--------|

Un ardiente
E|--------|------|-------|------|-------|------|--------|
A|--------|------|-------|----3-|-3-5-6-|--6-5-|-8-6-5--|
D|----5-3-|--3-5-|-5-3-1-|---3--|-------|------|--------|
G|--5--5--|-5----|-------|-3----|-------|-3----|--------|

En las olas
E|--------|-----|-----|-----|-----|-------------|---------|
A|--------|-----|-----|---3-|-----|-------------|----6-5--|
D|----5-3-|--3--|-3-1-|--3--|-5-5-|-55--------6-|-5-3-----|
G|--5--5--|-5-3-|--3--|-3---|--5--|----55-33-3--|---------|

En un caracol
E|----------------|---------------|---------|------|--------|
A|--------8-6-6---|-------8-6-6---|---6--5--|--565-|---865--|
D|--5-8-5------86-|-5-8-5------86-|-5-----5-|------|-55-----|
G|-----7----------|----7----------|-----5---|-7----|--------|

Durante la trompeta
E|--------|------|-------|-----|-------|--------|--------|
A|--------|------|-----6-|-653-|-3-5-6-|----6-5-|-555----|
D|------3-|---35-|-5-3---|-----|-------|-8-8----|----66--|
G|--55-5--|-5----|-------|-----|-------|--8-----|--------|

Intro
E|--------------|-----------|
A|----3-6-5-----|-6----6-5--|
D|--5-------5/7-|--8--8-----|
G|--------------|---8-------|

aunque estemos
E|---------|------|-------|-----|-------|------|--------|
A|---------|------|-------|---3-|-3-5-6-|--6-5-|-5-6-5--|
D|-----5-3-|--3-5-|-5-3-1-|--3--|-------|------|--------|
G|--5-5----|-5----|-------|-3---|-------|-3----|--------|

Temo yo permanecer
E|--------|-----|-----|-----|-----|-------------|---------|
A|--------|-----|-----|---3-|-----|-------------|----6-5--|
D|-----53-|--3--|-3-1-|--3--|-5-5-|-55--------6-|-5-3-----|
G|--5-5---|-5-3-|--3--|-3---|--5--|----55-33-3--|---------|

tu risa celestial
E|----------------|---------------|--------|-----------|
A|--------8-6-6---|-------8-6-6---|---6--5-|------66-5-|
D|--5-8-5------86-|-5-8-5------86-|-5------|-5-8-8-----|
G|-----7----------|----7----------|-----5--|----7------|

Si no te vuelvo a ver
E|----------------|---------------|----------|
A|--------8-6-6---|-------8-6-6---|---6--5---|
D|--5-8-5------86-|-5-8-5------86-|-5------5-|
G|-----7----------|----7----------|-----5----|

E|--3--|
A|-----|
D|-----|
G|-----|

ahhhhhhhhhh
aca les mando esta bella cancion
la saque ante pero como ven no mande nada hace mucho tiempo
esta buenisima
en especial las trompetas
pero bueno
mejor si lo tocan con acustica

atte. miauricio gatolar

 A
        A        
ntonio B
        B        
anderas

Este fichero es trabajo propio de su transcriptor y representa su interpretación personal de la canción. El material contenido en esta página es para exclusivo uso privado, por lo que se prohibe su reproducción o retransmisión, así como su uso para fines comerciales.