No sé que tengo no sé (TAB)


Parece que la canción es de Los Pasteles Verdes de Perú
pero no estoy muy seguro:

El problema es que hay varias grabaciones de esta canción y
no todos la tocan igual...


INTRO:

e|------------|-------------|------------------|-----
b|------------|-------------|------------------|-----
g|4-4--2-4-0--|----4-2-4-0--|---4-4-5-77776622-|4----
d|---5--------|2------------|2-----------------|-----


   Em
       Em       
  G
        G        
 Am
       Am       
-B-Em
       Em       
  e|------------------- b|------------------- g|0-2-4-0-2-4-0------ d|--------------2---- ESTROFA: No se que tengo no se g|4-2-4-0--- d|--------2- quiero llorar por que tú ya no estas d|-0------------------------ a|----------------4-------2- tú ya no estas tal ves mi corazón fue  B
        B        
|---0-1.----------------00123.---------------3/8---8.-  G
        G        
|0-2-------------------------------------------------- solo un tonto nomás  B
        B        
|10-10/12-10----------------------------------------------  G
        G        
|------------12-11------------------------7-9--7-11-7-9.--  D
        D        
|--------------------------------------7/9----9-----------  A
        A        
terminado el ayer,  B
        B        
|12-10-12---------  G
        G        
|---------12-10.-- a terminado y yo no se porque  G
        G        
|-------7------------6------4- quiero llorar, quiero llorar porque tú  B
        B        
|---0-1.--------------1.-3.-------------------3/8-8.-  G
        G        
|0-2------------------------------------------------- porque tú ya no estas  B
        B        
|10/12-10----------------------------  G
        G        
|--------12-11---------7.---------9.- Am
       Am       
   D
        D        
Bm
       Bm       
  Am
       Am       
  Em
       Em       
  Más, me queda hoy de ti tu rostro aquel que no olvidé  C
        C        
tus ojos tristes  B
        B        
cuando te vi partir  G
        G        
|4-4-4-7-7-7-11-11-11-14-14-14-16..- Repite: TODO
       DO       
  * Los acompañamientos se repiten por partes solo escuchen bien * Final:  E
        E        
 C
        C        
 D
        D        
(E) .... solo un tonto noma...as * Los ultimos acordes (C
        C        
 y D
        D        
) los tocas en quintas y con arpegio. Termina con un solo toque en E
        E        
Enzo F
        F        
elipe, Lima-Perú (Decibel)

 A
        A        
ngeles Negros

Este fichero es trabajo propio de su transcriptor y representa su interpretación personal de la canción. El material contenido en esta página es para exclusivo uso privado, por lo que se prohibe su reproducción o retransmisión, así como su uso para fines comerciales.



Buscar canción en YouTube Buscar cover en YouTube


Más canciones